Cifra Club

Empty

The Cranberries

Cifra: Principal (violão e guitarra)
Selo Cifra Club: esta cifra foi revisada para atender aos critérios oficiais da nossa Equipe de Qualidade.
tom: E
[Intro]  E  B  A
         E  B  A

E|------------12-----7------------11------7-----------------9------7-|
B|----10---------------------9-----------------------10--------------|
G|-------------------------------------------------------------------|
D|-------------------------------------------------------------------|
A|-------------------------------------------------------------------|
E|-------------------------------------------------------------------|

E|---------9------7-------------12------7----------------11------7---|
B|-10--------------------10-----------------------9------------------|
G|-------------------------------------------------------------------|
D|-------------------------------------------------------------------|
A|-------------------------------------------------------------------|
E|-------------------------------------------------------------------|

E|-------9-----7-----------9------7------------|
B|10----------------10-------------------------|
G|---------------------------------------------|
D|---------------------------------------------|
A|---------------------------------------------|
E|---------------------------------------------|

E|--------------------------------------------------------------------|
B|----------5---------------5---------------------4------------4------|
G|--2--------------4---------------2------1-------------4-----------1-|
D|--------------------------------------------------------------------|
A|--------------------------------------------------------------------|
E|--------------------------------------------------------------------|

E|--------------------------------------------------------------------|
B|---------2---------------2---------------------2------------2-------|
G|-2---------------4-------------2--------2------------4------------2-|
D|--------------------------------------------------------------------|
A|--------------------------------------------------------------------|
E|--------------------------------------------------------------------|

E|--------------------------------------------------------------------|
B|----------5---------------5---------------------4------------4------|
G|--2--------------4---------------2------1-------------4-----------1-|
D|--------------------------------------------------------------------|
A|--------------------------------------------------------------------|
E|--------------------------------------------------------------------|

E|--------------------------------------------------------------------|
B|---------2---------------2---------------------2------------2-------|
G|-2---------------4-------------2--------2------------4------------2-|
D|--------------------------------------------------------------------|
A|--------------------------------------------------------------------|
E|--------------------------------------------------------------------| 

E               B
 Something has left my  life
               A
 And I don't know where it went to ah
E                 B
 Somebody caused me strife
           A
 And it's not what I was seeking
                 E                   B
 Didn't you see me, didn't you hear me
                 A
 Didn't you see me standing there ah
E                 B
 Why did you turn out the lights
           A
 Did you know that I was sleeping

Am             C   G
 Say a prayer for me
             Em
 Help me to feel the strength I did
Am    C                   G
 My identity has it been taken
               Em
 Is my heart breaking on me
Am        C                    G
 All my plans feel through my hands
                       Em
 They feel through my hands on me
Am        C                 G                 Em
 All my dreams it suddenly seems it suddenly seems

     Am   C    G    Em
 Empty... y... y... y
     Am   C    G    Em
 Empty... y... y... y

 ( Am  C  G  Em  Am  C  G  Em )

     Am   C    G    Em
 Empty... y... y... y
     Am   C    G    Em
 Empty... y... y... y

 ( Am  C  G  Em )

     Am   C    G    Em
 Empty... y... y... y
     Am   C    G    Em
 Empty... y... y... y
     Am   C    G    Em     Am
 Empty... y... y... y
Outros vídeos desta música
    29.150 exibições
      • ½ Tom
      • A
      • Bb
      • B
      • C
      • Db
      • D
      • Eb
      • E
      • F
      • F#
      • G
      • Ab
    • Adicionar à lista

    Afinação da cifra

    Afinador online

      0 comentários

      Ver todos os comentários

      Entre para o Cifra Club PRO

      Tenha acesso a benefícios exclusivos no App e no Site

      • Chega de anúncios

      • Mais recursos no app do Afinador

      • Atendimento Prioritário

      • Aumente seu limite de lista

      • Ajude a produzir mais conteúdo

      Cifra Club Pro

      Aproveite o Cifra Club com benefícios exclusivos e sem anúncios
      Cifra Club Pro
      Aproveite o Cifra Club com benefícios exclusivos e sem anúncios
      OK