Cifra Club

Ridiculous Thoughts

The Cranberries

Cifra: Principal (violão e guitarra)
exibições 24.199
Tom: C
[Intro]

E|-----------------------------------------------------------------------|
B|---5-----5-----5----8-----8-----5------3-----3-----3-----1-----1-----1-|
G|-----6-----6----------6-----6------------4-----4-----------2-----2-----|
D|-7-----7-----7---7------7-----7-----5------5-----5-----3-----3-----3---|
A|-----------------------------------------------------------------------|
E|-----------------------------------------------------------------------|

( Am  C  G )

E|--------------------------|
B|--5-----------------------|
G|--6-----------------------|
D|--7-----------------------|
A|--------------------------|
E|--------------------------|
 
Am     C      F   G
A aaa aaaa aaaaaa 

  Am            C         G
Twister does anyone see though you
              Am      C      G
You're a twister, how an animal
                  Am  C
But you're happy now
G
I didn't go along with you
    Am    C        G
So happy now, an animal
                             Am  C
But you're going to have to hold on
 G
You're going to have to hold on
                           Am  C
Or we're going to have to move on
              G
Move on, move on
F    G
Aaa aaa
          Am
I feel alright
             Em
And I cried so hard
         F               G
The ridiculous thoughts  aaaa
Am
I feel alright
  Am     C       G
Twister how. I shouldn't have twisted you
           Am     C         G
You're a Twister how an animal
                   Am     C
It's not going to happen no
 G
You're not going to make fun of me
 Am     C       G
Happen no, an animal
                     Am          C
But you're going to have to hold on
                         G
You're going to have to hold on
                           Am       C            G
Or we're going to have to hold on, hold on, hold on
                           Am       C
Or we're going to have to move on, move on
 G
Move on
F    G
Aaaa aaa
          Am
I feel alright
             Em
And I cried so hard
           F
The ridiculous thoughts
G         Am  Em
I feel alright
F      G
Aaa aaaaa
               Am
I should have lied
        Em
But I cried so hard
         F
The ridiculous thoughts
G             Am
I should ha' lied
                          F                                 G
But you're gonna have to hold on, you're gonna have to hold on
                   Am                      Em
You're gonna have to hold on, Hold on hold on
                       F                             G                                 Am
You're gonna have to hold on, you're gonna have to hold on, you're gonna have to hold on

To me
Acordes para:
    Colaboração e revisão:

    0 comentários

      mostrar mais comentários

      Conseguiu tocar?

      1tocaram0ainda não

      Grave um vídeo tocando Ridiculous Thoughts e mande pra gente!

      00:00 / 00:00
      outros vídeos desta música
      repetirqualidadeAutomático
      Outro vídeos desta música
        00:00 / 00:00
        OK