Cifra Club

Zombie

The Cranberries

Cifra: Principal (violão e guitarra)
tom: Em
[Intro] Em  C7M  G6  D6(9)/F#
        Em  C7M  G6  D6(9)/F# 
        Em  C7M  G6  D6(9)/F# 
        Em  C7M  G6  D9(11)/F#

[Tab - Solo Intro]

E|-7h8----5h7----3h5----2h3p2--------------------------|
B|-----------------------------3--3p0------------------|
G|-----------------------------------------------------|
D|-----------------------------------------------------|
A|-----------------------------------------------------|
E|-----------------------------------------------------|

[Primeira Parte]

Em          C7M
   Another head hangs lowly
  G6             D9(11)/F#  Em
Child is slowly taken
                  C7M
And the violence caused such silence
  G6           D9(11)/F#
Who are we mistaken?

[Segunda Parte]

             Em
But you see,    it's not me
            C7M
It's not my     family
              G6    
In your head,    in your head
              D9(11)/F#
They are fighting
                 Em
With their tanks    and their bombs
                 C7M
And their bombs,     and their guns
              G6
In your head,     in your head 
            D9(11)/F#
They are crying

[Refrão]

         Em            C7M
In your head, in your head
        G6                D6(9)/F#
Zombie,    zombie, zombie
                Em            C7M
What's in your head, in your head
        G6                D6(9)/F#
Zombie,    zombie, zombie

[Interlúdio] Em  C7M  G6  D6(9)/F# 
             Em  C7M  G6  D9(11)/F# 

[Tab - Solo Interlúdio]

E|-7h8----5h7----3h5----2h3p2--------------------------|
B|-----------------------------3--3p0------------------|
G|-----------------------------------------------------|
D|-----------------------------------------------------|
A|-----------------------------------------------------|
E|-----------------------------------------------------|

[Terceira Parte]

Em          C7M   
   Another mother's breaking 
 G6               D9(11)/F#  Em
Heart is taking over
                   C7M
When the violence causes silence
 G6            D9(11)/F#
We must be mistaken

[Quarta Parte]

          Em
It's the same old theme
         C7M
Since nineteen-sixteen
              G6
In your head,    in your head 
                   D9(11)/F#
They're still fighting
                 Em
With their tanks    and their bombs
                 C7M
And their bombs,     and their guns
              G6
In your head,    in your head
           D9(11)/F#
They are dying

[Refrão]

         Em            C7M
In your head, in your head
        G6                D6(9)/F#
Zombie,    zombie, zombie
                Em            C7M
What's in your head, in your head
        G6                D6(9)/F#
Zombie,    zombie, zombie

[Interlúdio] Em  C7M  G6  D6(9)/F#
             Em  C7M  G6  D6(9)/F#
             
[Solo] Em  C7M  Em  C7M
       Em  C7M  Em  C7M
       Em  C7M  G6  D6(9)/F# 
       Em  C7M  G6  D6(9)/F# 
       Em  C7M  G6  D6(9)/F# 
       Em

[Tab - Solo]

[Parte 1 de 4]
E|-7h8----5h7--------7h8----5h7------------------------|
B|-----------------------------------------------------|
G|-----------------------------------------------------|
D|-----------------------------------------------------|
A|-----------------------------------------------------|
E|-----------------------------------------------------|

E|-7--7--7--7h8----5h7--7--7--7--7h8----5h7------------|
B|-----------------------------------------------------|
G|-----------------------------------------------------|
D|-----------------------------------------------------|
A|-----------------------------------------------------|
E|-----------------------------------------------------|

[Parte 2 de 4]
E|-7--7--7--7--8----10p7---7---7---7/8----10p7---------|
B|-7--7--7--7--8----10p7---7---7---7/8----10p7---------|
G|-----------------------------------------------------|
D|-----------------------------------------------------|
A|-----------------------------------------------------|
E|-----------------------------------------------------|

E|-7---7---7/8----10p7----7\5----5---------------------|
B|-7---7---7/8----10p7----7\5----5---------------------|
G|-----------------------------------------------------|
D|-----------------------------------------------------|
A|-----------------------------------------------------|
E|-----------------------------------------------------|

[Parte 3 de 4]
E|-7---10---10/12---12\---10---10---10/12---12\--------|
B|-7---10---10/12---12\---10---10---10/12---12\--------|
G|-----------------------------------------------------|
D|-----------------------------------------------------|
A|-----------------------------------------------------|
E|-----------------------------------------------------|

E|-10---10---10\7---7------7\5---5---------------------|
B|-10---10---10\7---7------7\5---5---------------------|
G|-----------------------------------------------------|
D|-----------------------------------------------------|
A|-----------------------------------------------------|
E|-----------------------------------------------------|

[Parte 4 de 4]
E|-7---7---7/8----10p7---7---7---7/8----10p7-----------|
B|-7---7---7/8----10p7---7---7---7/8----10p7-----------|
G|-----------------------------------------------------|
D|-----------------------------------------------------|
A|-----------------------------------------------------|
E|-----------------------------------------------------|

E|-7---7---7/8----10p7----7\5----5---------------------|
B|-7---7---7/8----10p7----7\5----5---------------------|
G|-----------------------------------------------------|
D|-----------------------------------------------------|
A|-----------------------------------------------------|
E|-----------------------------------------------------|
00:00 / 00:00
Outros vídeos desta música
Repetir
Outros vídeos desta música
Composição de Dolores O'Riordan
1.480.628 exibições
  • Simplificar cifra
    • ½ Tom
    • Am
    • Bbm
    • Bm
    • Cm
    • C#m
    • Dm
    • Ebm
    • Em
    • Fm
    • F#m
    • Gm
    • G#m
  • Adicionar à lista

    0 comentários

    Ver todos os comentários

    Entre para oCifra Club PRO

    Tenha acesso a benefícios exclusivos no App e no Site

    • Chega de anúncios

    • Prioridade de compra em lançamentos

    • Mais recursos no app do Afinador

    • Atendimento Prioritário

    • Descontos nos produtos Cifra Club

    • Ajude a produzir mais conteúdo

    00:00 / 00:00

    Cifra Club Pro

    Aproveite o Cifra Club com benefícios exclusivos e sem anúncios
    Cifra Club Pro
    Aproveite o Cifra Club com benefícios exclusivos e sem anúncios
    OK