Cifra Club

Aprenda

Zombie

The Cranberries

Cifra: Principal (violão e guitarra)
Tom: Em
[Intro] Em  C  G  D/F#
        E5  C5  G5  D5/F#
        E5  C5  G5  D5/F#
        E5 

E|-7h8-5h7-3h5----2h3p2-------|
B|----------------------3-3-0-|
G|----------------------------|
D|----------------------------|
A|----------------------------|
E|----------------------------|

[Primeira Parte

Em         C
  Another head hangs lowly
  G                D/F#
Child is slowly taken
Em                  C
  And the violence caused such silence
  G            D/F#
Who are we mistaken

         Em
But you see, it's not me
          C
It's not my family
         G
In your head, in your head
          D/F#
They are fighting
            Em
With their tanks, and their bombs
                C
And their bombs, and their guns
         G                            D/F#
In your head, in your head they are cryin'

[Refrão]

         E5            C5
In your head, in your head
    G5              D5/F#
Zombie, zombie, zombie êh êh
                E5            C5
What's in your head, in your head
    G5              D5/F#
Zombie, zombie, zombie êh êh êh ôh

( E5  C5  G5  D5/F# )
( E5 )

E|-7h8-5h7-3h5----2h3p2-------|
B|----------------------3-3-0-|
G|----------------------------|
D|----------------------------|
A|----------------------------|
E|----------------------------|

[Segunda Parte]

Em         C
  Another mother's breakin'
 G              D/F#
Heart is taking over
Em                   C
  When the violence causes such silence
 G             D/F#
We must be mistaken

          Em                     C
It's the same old theme since 1916
         G
In your head
                            D/F#
In your head they're still fightin'
            Em
With their tanks and their bombs
           C
And their bombs and their guns
         G                           D/F#
In your head, in your head they are dying

[Refrão]

         E5            C5
In your head, in your head
    G5              D5/F#
Zombie, zombie, zombie êh êh
                E5            C5
What's in your head, in your head
    G5              D5/F#
Zombie, zombie, zombie êh êh êh ôh

( E5  C5  G5  D5/F# )
( E5 )

[Solo]

E|-7/8---5/7----7/8---5/7--7-7-7---7/8---5/7--7-7-7---|
B|----------------------------------------------------|
G|----------------------------------------------------|
D|----------------------------------------------------|
A|----------------------------------------------------|
E|----------------------------------------------------|

E|-7/8---5/7-7-7-7---7/8---5/7-7-7-7---7/8--5/7-7-7-7-|
B|-----------7-7-7---7/8---5/7-7-7-7---7/8--5/7-7-7-7-|
G|----------------------------------------------------|
D|----------------------------------------------------|
A|----------------------------------------------------|
E|----------------------------------------------------|

E|-7/8---5/7---7\5---5---7---10--10/12--12\10-10-10-10|
B|-7/8---5/7---7\5---5---7---10--10/12--12\10-10-10-10|
G|----------------------------------------------------|
D|----------------------------------------------------|
A|----------------------------------------------------|
E|----------------------------------------------------|

E|-10/12--12\10--10-10-10---10\7--7--7\5--5/7--7--7-7-|
B|-10/12--12\10--10-10-10---10\7--7--7\5--5/7--7--7-7-|
G|----------------------------------------------------|
D|----------------------------------------------------|
A|----------------------------------------------------|
E|----------------------------------------------------|

E|-7/8---5/7-7-7-7---7/8---5/7-7-7-7---7/8--5/7-------|
B|-7/8---5/7-7-7-7---7/8---5/7-7-7-7---7/8--5/7-------|
G|----------------------------------------------------|
D|----------------------------------------------------|
A|----------------------------------------------------|
E|----------------------------------------------------|

E|-7\5------5------------5----------------------------|
B|-7\5------5------------5----------------------------|
G|----------------------------9-----------------------|
D|----------------------------9-----------------------|
A|----------------------------7-----------------------|
E|----------------------------0-----------------------|
Composição de Dolores O'Riordan 1.026.990 exibições
    • ½ Tom
    • Am
    • Bbm
    • Bm
    • Cm
    • C#m
    • Dm
    • Ebm
    • Em
    • Fm
    • F#m
    • Gm
    • G#m
  • Adicionar à lista

    0 comentários

    Mostrar mais comentários

    Conseguiu tocar?

    243 Tocaram 24 Ainda não

    Grave um vídeo tocando Zombie e mande pra gente!

    00:00 / 00:00
    outros vídeos desta música
    repetir qualidade Automático
    Outros vídeos desta música
    00:00 / 00:00
    Automático
    OK