Cifra Club

Aprenda

Friday Night

The Darkness

Cifra: Principal (violão e guitarra)
tom: E
Intro

                                        |-p/m--(slowly releasing)-| 
E--0----0-----------------------0-0--------------------------------------
B--0-------4p2p0-2------0-------------4--4---4-4-4-4-4-4-4-4-4-4-4-------
G--1---------------2----2p1-2p1----------4---4-4-4-4-4-4-4-4-4-4-4-------
D--2--------------------2-----------2----4---4-4-4-4-4-4-4-4-4-4-4-------
A--2--------------------0----------------2---2-2-2-2-2-2-2-2-2-2-2-------
E--0---------------------------------------------------------------------


Verse 1

E---------------------------------------5-0----------2---------------------
B------4----4--4--------------------0-------0---0----2---------------------
G------4----4--4-------4------4--4--6---------6------2------------4-----4--
D------4----4--4----6--6---6--6--6--7-------------6--4---4-2--4h6---4h6-4--
A---0--2----2--2----6------6--------7--------------------------------------
E--------------------------------------------------------------------------

E-------------------------------5-0----------2------------2----
B---4--4--------------------0-------0---0----2--2-4---5--------
G---4--4-------4------4--4--6---------6------2------2---2---2--
D---4--4----6--6---6--6--6--7-------------6--4-----------------
A---2--2----6------6--------7----------------------------------
E--------------------------------------------------------------


Chorus
           
E----------------------4---4--5---4-5-----4---4--5---4-5-----0---0--0---0-0--|
B---9----10---9-10-----5---5--5---5-5-----5---5--5---5-5-----7---7--7---7-7--| repeat
G---9----9----9-9------4---4--4---4-4-----4---4--4---4-4-----8---8--8---8-8--| once
D---9----9----9-9------6---6--6---6-6-----x---x--x---x-x-----9---9--9---9-9--|
A---7----7----7-7------4---4--4---4-4-----0---0--0---0-0---------------------|
E----------------------------------------------------------------------------|

(Flatten your middle finger for the 5 on the high-e of the C#min7 chord)


Verse 2

E-----------------------------------5-0----------2---------------------
B---4----4--4----5---5-4--4-5---0-------0---0----2---------------------
G---4----4--4----4---4-4--4-4---6---------6------2------------4-----4--
D---4----4--4----6---6-6--6-6---7-------------6--4---4-2--4h6---4h6-4--
A---2----2--2----6---6-6--6-6---7--------------------------------------
E----------------------------------------------------------------------

E------------------------------5-0----------2------------2--------
B---4--4----5---5-4--4-5---0-------0---0----2--2-4---5------------
G---4--4----4---4-4--4-4---6---------6------2------2---2---2------
D---4--4----6---6-6--6-6---7-------------6--4---------------------
A---2--2----6---6-6--6-6---7--------------------------------------
E-----------------------------------------------------------------


Play Chorus and slide off from end chord to:


|--MIDDLE SECTION--| (2 guitars)


Guitar 1
                                                      (1)
E-------0----------------------0-0-------------2-------|----0------------
B--0--0----4p2p0-2-------------------4-------4---4-----|--0----4p2p0-2---
G--1---------------2---2/1-2p1-------------2-------2---|---------------2-
D--2-------------------------------2-----4-----------4-|2----------------
A--2-----------------------------------2---------------|-----------------
E--0---------------------------------------------------|-----------------

                                  (2) 
E----------0-0-------------2-------|----0---------------------0-0--------
B----------------4-------4---4-----|--0----4p2p0-2-----------------/7~~--
G--2/1-2p1-------------2-------2---|---------------2--2/1-2p1------------
D--------------2-----4-----------4-|2------------------------------------
A------------------2---------------|-------------------------------------
E----------------------------------|-------------------------------------

Play through once to (2) then repeat the section between (1) and (2), then 
carry on to the end.


Guitar 2 - Starts at the repeat of (1) to (2) on Guitar 1.
                                                   |-p/m-|
E------------------------------------------------------------------------
B-------/9~~-----------------------------9-9------------------------/9---
G-------------11p98--9-----------------------11~~-----------------------
D--6~~-------------------11~~--11p9-11p9------------(9)(9)--6b7b6~~------
A------------------------------------------------------------------------
E------------------------------------------------------------------------

E-----------------------------------------
B----------------------------9-9--/12~~---
G--11p98--9------------------------------
D------------11~~--11p9-11p9--------------
A-----------------------------------------
E-----------------------------------------


solo final by Bruno kaleo

E------------------------------------------------------------------------
B----9-12------9h12p9----9----------------------------------------------
G----------------------11---11-11~~----11bvp9----9-11bv~-----------------
D---------------------------------------------11--------9--------9bv-----
A------------------------------------------------------------------------
E------------------------------------------------------------------------

E-------------------------------------14/16-14-12-14-12-14/16-14---------
B------------------------------------------------------------------------
G----8h9h11-8h9h11h13-9h11h13h16-----------------------------------------
D------------------------------------------------------------------------
A------------------------------------------------------------------------
E------------------------------------------------------------------------

E-----12-14-12--12-------------------------------------------------------
B-------------14--14-12-14-12--12----------------------------------------
G----------------------------13--13-11-13-11-9-11-9---9------------------
D---------------------------------------------------11-11-9-11-9---------
A------------------------------------------------------------------------
E------------------------------------------------------------------------

E------------------------------------------------------------------------
B---9-------------------------9-9----------------9-----------------------
G-----11p9p8-9--------------------11---------------11p9p8-9--------------
D--------------11---11-9-11-9-----------9-11-9--------------11-----------
A------------------------------------------------------------------------
E------------------------------------------------------------------------

E------------------------------------------------------------------------
B-------------9-9-12-9-12------------------------------------------------
G-------------------------11-8-9~~~~~~~~~--------------------------------
D--11-9-11-9-------------------------------------------------------------
A------------------------------------------------------------------------
E------------------------------------------------------------------------
Composição de Dan Hawkins / Frankie Poullain / Justin Hawkins
Colaboração e revisão:
  • Danilo Briscese
4.725 exibições
    • ½ Tom
    • A
    • Bb
    • B
    • C
    • Db
    • D
    • Eb
    • E
    • F
    • F#
    • G
    • Ab
  • Adicionar à lista

    0 comentários

    Ver todos os comentários

    Conseguiu tocar?

    0 Tocaram 0 Ainda não

    Grave um vídeo tocando Friday Night e nos envie!

    00:00 / 00:00
    outros vídeos desta música
    repetir qualidade Automático
    Outros vídeos desta música
    00:00 / 00:00
    Automático

    Cifra Club Pro

    Aproveite o Cifra Club com benefícios exclusivos e sem anúncios
    Cifra Club Pro
    Aproveite o Cifra Club com benefícios exclusivos e sem anúncios
    OK