Cifra Club

Do It

The Doors

Cifra: Principal
exibições 3.992
Tom: G
Intro :
Ha, ha, ha, ha
Yeah
Please me, yeah
Please baby
Please, please

F
E|--------------------- |----------------|
B|--------------------- |-----------------------|
G|----------------------|-----------------------|
D|-----3---0--3-------|------------0—3--3h5---3---|
A|----------------------|----0--3---------------|
E|----------------------|--------------------|   com variações.
  
1º parte
G
  Please, please listen... 
E| ------------------------------------------------|
B| -------------------------------------------------|
G| ------------------------------------------------|
D| --5---5----5/3--------------------------------------2/0-------|
A| ------------------5/3-------------------------------------2/0-------|
E| ------------------------6(7)----3----0---1--2--3----------------3----|
2º parte
A
You gotta please
E|----------------------|
B|--------------------- |
G| -------2--------2--2--------2------2--2----|
D| -0h2-----0h2----------0h2-----0h2--------5-5-5-5-5-5-5-4-4-4-4-4-4-4---|
A| ----------------------|
E| ----------------------|




G
  Please, please listen... 
E| -------------------------------------------------|
B| -------------------------------------------------|
G| -------------------------------------------------|
D| --5---5---5/3------------------------------------2/0-------|
A| ----------------5/3-----------------------------------2/0-------|
E| -----------------------6(7)----3----0---1--2--3-------------3----|



  A
 Said please, please listen... 
E| -------------------------------------------------|
B| -------------------------------------------------|
G| -------------------------------------------------|
D| --7---7-----7/5--------------------------------------4/2-------|
A| -------------------7/5------------------------------------4/2-------|
E| --------------------------8(9)----5----2---3--4--5--------------5----|

   G                  Em 
                                                 
E| --3---------------------|----0---------------------|
B| --3---3-3-----3—3-------|----0--0--0---0—0----|
G| --4--------4---------4--|----0-------0-----0-|
D| --5---------------------|----2----------------------|
A| --5---------------------|----2-----------------------|
E| --3---------------------|----0-----------------------|
 
   F#m                             A                     D          B
    I’m asking
E| -2---------------------|---5------------|-----------------------|-7-------------------|
B| -2---2--2----2--2------|---5---5--5-----|-----------------------|-7---7—7------7--7---|
G| -2---------2--------2--|---6----------6-|------7—7-----7--7-----|-8--------8--------8-|
D| -4---------------------|---7------------|-----------7--------7--|-9-------------------|
A| -4---------------------|---7------------|-5---------------------|-9--
E| -2---------------------|---5------------|-5---------------------|-7--  

Cifra:
F
Ha, ha, ha, ha
Yeah
Please me, yeah
Please baby
Please, please

1º parte
G
Please, please listen to me children
Please, please listen to me children
Please, please listen to me children
Please, please listen to me children
C                              D
You are the ones who will rule the world

G
Listen to me children
Listen to me children
Please, please, listen to me children
Please, please, listen to me children
C                                D
You are the ones who will rule the world

2º parte
You gotta please me
All night
G
Please, please listen to me children
A
Said please, please, listen to me children
G                         Em 
Please, yeah, please me
F#m                  A  D B
I'm askin' you

A
Please, please listen to me children
Please, please listen to me children
Please, please listen to me children
Please, my children
Please, children
Please
Children

       Final:

D|--------------------------2  
A|--------------------------2
E|--2—3—4—3—4—5—6—5—4—3—2—1—0
Acordes para:
    Composição: Jim Morrison / Robby KriegerColaboração e revisão:
    • Luis Braschi

    0 comentários

      mostrar mais comentários

      Conseguiu tocar?

      0tocaram0ainda não

      Grave um vídeo tocando Do It e mande pra gente!

      00:00 / 00:00
      outros vídeos desta música
      repetirqualidadeautomática
      Outro vídeos desta música
        00:00 / 00:00
        automática
        OK