Cifra Club

Gloria

The Doors

Cifra: Principal
exibições 20.780
Tom: D
 - Overdrive \ Distortion Guitar - Robbie Kriger 


INTRO:

E|------2---------2---|
B|---0--3-2----0--3-2-|
G|-1-1--2-2--1-1--2-2-|   
D|-2-2----2--2-2----2-|
A|-2-2-------2-2------|
E|--------------------|


CHORUS:

E|------2---------2---|-------2---2--------2---2--|
B|---0--3-2----0--3-2-|-----0-3-2-3------0-3-2-3--|
G|-1-1--2-2--1-1--2-2-|-1-1-1-2-2-2--1-1-1-2-2-2-1|
D|-2-2----2--2-2----2-|-2-2-2---2----2-2-2---2---2|
A|-2-2-------2-2------|-2-2-2--------2-2-2-------2|
E|--------------------|---------------------------|


VERSE: 

E|----------------------  ||
B|----------------------  ||
G|--------------------2- 0||
D|-2--0h2-0---2--0h2-0-- 0||
A|---------2------------  ||
E|----------------------  ||


CHORUS:

E|------2---------2---|-------2---2--------2---2---  ||
B|---0--3-2----0--3-2-|-----0-3-2-3------0-3-2-3---  ||
G|-1-1--2-2--1-1--2-2-|-1-1-1-2-2-2--1-1-1-2-2-2-1- 0||
D|-2-2----2--2-2----2-|-2-2-2---2----2-2-2---2---2- 0||
A|-2-2-------2-2------|-2-2-2--------2-2-2-------2-  ||
E|--------------------|----------------------------  ||


VERSE:

E|---------------------|
B|---------------------|
G|--------------------2|
D|-2--0h2-0---2--0h2-0-|
A|---------2-----------|
E|---------------------|


E|---------------------  ||
B|---------------------  ||
G|--------------------- 0||
D|-2--0h2-0---2--0h2-0- 0||
A|---------2----------2  ||
E|---------------------  ||


E|---------------------|
B|---------------------|
G|---------------------|
D|-2-0-2-0-------------|
A|---------------------|
E|---------------------|


CHORUS:

E|------2---------2---|-------2---2--------2---2---  ||
B|------3-2-------3-2-|-------3-2-3--------3-2-3---  ||
G|-1-1--2-2--1-1--2-2-|-1-1-1-2-2-2--1-1-1-2-2-2-1- 0||
D|-2-2----2--2-2----2-|-2-2-2---2----2-2-2---2---2- 0||
A|-2-2-------2-2------|-2-2-2--------2-2-2-------2-  ||
E|--------------------|----------------------------  ||

E|---------------------|
B|---------------------|
G|--------------------2|
D|-2--0h2-0---2--0h2-0-|
A|---------2-----------|
E|---------------------|


E|---------------------  ||
B|---------------------  ||
G|--------------------- 0||
D|-2--0h2-0---2--0h2-0- 0|| repeat many times while jim does his thing
A|---------2----------2  ||
E|---------------------  ||


E|---------------------|
B|---------------------|
G|---------------------|
D|-2-0-2-0-------------|
A|---------------------|
E|---------------------|


CHORUS:

E|------2---------2---|-------2---2--------2---2---  ||
B|------3-2-------3-2-|-------3-2-3--------3-2-3---  ||
G|-1-1--2-2--1-1--2-2-|-1-1-1-2-2-2--1-1-1-2-2-2-1- 0||
D|-2-2----2--2-2----2-|-2-2-2---2----2-2-2---2---2- 0||
A|-2-2-------2-2------|-2-2-2--------2-2-2-------2-  ||
E|--------------------|----------------------------  ||
Acordes para:
    Composição: Van MorrisonColaboração e revisão:
    • Élison Duarte

    0 comentários

      mostrar mais comentários

      Conseguiu tocar?

      1tocaram0ainda não

      Grave um vídeo tocando Gloria e mande pra gente!

      00:00 / 00:00
      outros vídeos desta música
      repetirqualidadeautomática
      Outro vídeos desta música
        00:00 / 00:00
        automática
        OK