Cifra Club

Aprenda

Fever

The Hives

Cifra: Principal (violão e guitarra)
Tom: A
Intro/Chorus 1 at 0:04

e|-------------------------------------------|
B|---/6-6-6-6-6-6-6-6-6-6-6-6-6-6-6-6--5\----| x2
G|-------------------------------------------|
D|-------------------------------------------|
A|-------------------------------------------|
E|-------------------------------------------|

2 at 0:06 (all chords are 5ths)
    A D A   A D A  F5
e|-----------------------------------------------------|
B|-----------------------------------------------------|
G|-----7-------7----10101010101010101010101010101010---|
D|---7-7-7-x-7-7-7--10101010101010101010101010101010---|
A|---7-5-7-x-7-5-7--8-8-8-8-8-8-8-8-8-8-8-8-8-8-8-8----|
E|---5---5-x-5---5-------------------------------------|

cont.
    A D A   A D A     G5
e|-----------------------------------------------------|
B|-----------------------------------------------------|
G|-----7-------7---------------------------------------|
D|---7-7-7-x-7-7-7-x-7-5-5-5-5-5-5-5-5-5-5-5-5-5-5-5---|
A|---7-5-7-x-7-5-7-x-7-5-5-5-5-5-5-5-5-5-5-5-5-5-5-5---|
E|---5---5-x-5---5-x-5-3-3-3-3-3-3-3-3-3-3-3-3-3-3-3---|

Verse 1 at 0:14 ("I just stopped listening to...")
    C       F          A               C       F
e|---8-8-8-8------------5-5-5-5-5-5-5-5-8-8-8-8------------|
B|---8-8-8-8-1010101010-5-5-5-5-5-5-5-5-8-8-8-8-10101010---|
G|---9-9-9-9-1010101010-6-6-6-6-6-6-6-6-9-9-9-9-10101010---|
D|---101010101010101010-7-7-7-7-7-7-7-7-1010101010101010---|
A|---10101010-8-8-8-8-8-7-7-7-7-7-7-7-7-101010108-8-8-8----|
E|---8-8-8-8------------5-5-5-5-5-5-5-5-8-8-8-8------------|

cont. 
    C  F  C    C  F  C
e|-------------------------|
B|------10---------10------|
G|---9--10-9----9--10-8----|
D|---10-10-10-x-10-10-10---|
A|---10-8--10-x-10-8--10---|
E|---8-----8--x-8-----8----|

Pre|-Chorus 1 at 0:23 ("I never once felt more alive,...")
    A        G        F
e|---5-5-5-5--3-3-3-3--1-1-1-1-1-1-1-1-1-1-1-1-1-1-1-1---|
B|---5-5-5-5--3-3-3-3--1-1-1-1-1-1-1-1-1-1-1-1-1-1-1-1---|
G|---6-6-6-6--4-4-4-4--2-2-2-2-2-2-2-2-2-2-2-2-2-2-2-2---|
D|---7-7-7-7--5-5-5-5--3-3-3-3-3-3-3-3-3-3-3-3-3-3-3-3---|
A|---7-7-7-7--5-5-5-5--3-3-3-3-3-3-3-3-3-3-3-3-3-3-3-3---|
E|---5-5-5-5--3-3-3-3--1-1-1-1-1-1-1-1-1-1-1-1-1-1-1-1---|

Bridge 1 at 1:30
    A
e|---5-5-5-5-5-5-5-5-5-5-5-5-5-5-5-5-5-5-5-5-5-5-5-5-5---|
B|---5-5-5-5-5-5-5-5-5-5-5-5-5-5-5-5-5-5-5-5-5-5-5-5-5---|
G|---6-6-6-6-6-6-6-6-6-6-6-6-6-6-6-6-6-6-6-6-6-6-6-6-6---|
D|---7-7-7-7-7-7-7-7-7-7-7-7-7-7-7-7-7-7-7-7-7-7-7-7-7---|
A|---7-7-7-7-7-7-7-7-7-7-7-7-7-7-7-7-7-7-7-7-7-7-7-7-7---|
E|---5-5-5-5-5-5-5-5-5-5-5-5-5-5-5-5-5-5-5-5-5-5-5-5-5---|

Outro 1 and 2 at 1:59 ("Fever, (fever)...")
    C            F
e|---8-8-8-8-8-8----------------| 
B|---8-8-8-8-8-8--1010-101010---| x4
G|---9-9-9-9-9-9--1010-101010---|
D|---1010-101010--1010-101010---|
A|---1010-101010--8-8--8-8-8----|
E|---8-8--8-8-8-----------------|

Order of song:

Intro
Verse 
Pre|-Chorus
Chorus
Verse
Pre|-Chorus
Chorus
Verse
Bridge
Intro 
Chorus
Outro
Composição de Eddie Cooley / John Davenport
Colaboração e revisão:
  • Pedro Luiz
1.104 exibições
    • ½ Tom
    • A
    • Bb
    • B
    • C
    • Db
    • D
    • Eb
    • E
    • F
    • F#
    • G
    • Ab
  • Adicionar à lista

    0 comentários

    Mostrar mais comentários

    Conseguiu tocar?

    0 Tocaram 0 Ainda não

    Grave um vídeo tocando Fever e mande pra gente!

    00:00 / 00:00
    outros vídeos desta música
    repetir qualidade Automático
    Outros vídeos desta música
    00:00 / 00:00
    Automático
    OK