Cifra Club

Aprenda

Main Offender

The Hives

Cifra: Principal (violão e guitarra)
Tom: D
intro
e|------------------------------------------|
b|------------------------------------------|
g|---7---7-7-7---7-7-7---7-7-7--------------|
d|---7---7-7-7---7-7-7---7-7-7--------------|
a|---5---5-5-5---5-5-5---5-5-5--------------|
E|------------------------------------------|

verso: 2 riffs alternados

I'm on my way...
e|------------------------------------------|
b|------------------------------------------|
g|----------------10--12------------9--10---|
d|--9-10-11-12----10--12----7--6----9--10---|
a|--9-10-11-12-----8--10----7--6----7---8---|
E|--7--8--9-10--------------5--6------------|

Can't settle down...
e|----------------------------------------------|
b|----------------------------------------------|
g|----------------10--12----------10---------7--|
d|--9-10-11-12----10--12----7--6--10--9--10--7--|
a|--9-10-11-12-----8--10----7--6---8--9--10--8--|
E|--7--8--9-10--------------5--6------7---8-----|

depois desse ultimo acorde(fa na 8 casa/5 corda) repete a primeira parte sem o primeiro acorde (si 7 casa/6 corda).

pre-refrao:  la (5 casa/6 corda) repetidamente

refrao

e|----------------------------------------------|
b|----------------------------------------------|
g|-----------7--7--7--10-10-10--12--12--12------|
d|--7--7--7--7--7--7--10-10-10--12--12--12------|
a|--7--7--7--5--5--5---8--8--8--10--10--10------|
E|--5--5--5-------------------------------------|


I'm on my way. 
Can't settle down.
Stuck in ways of being an ass 
And I got a lot of nerve that I'm ready to pass. 

I'm on my way. 
Can't settle down.
Stuck in ways of sadistic joy 
And my talent only goes as far as to annoy. I'm on my way

This is my main offender. 
This is what I got and it
Got me saying - Why me? 

I'm on my way. 
I get around. 
Not too sure about what I do. 
Feel I've got to stop a second just to think it thru. 
And so I stop! 

I'm on my way. 
Yeah I get around.
Thought it all over and now I spit it out 
and when I spit I spit on those that I care less about 
I'm on my way. 

This is my main offender. 
This is what I've got and it 
Got me saying - Why me?

I'm on my way.
Composição de Randy Fitzsimmons
Colaboração e revisão:
  • Tiago Fonseca
16.234 exibições
    • ½ Tom
    • A
    • Bb
    • B
    • C
    • Db
    • D
    • Eb
    • E
    • F
    • F#
    • G
    • Ab
  • Adicionar à lista

    0 comentários

    Mostrar mais comentários

    Conseguiu tocar?

    1 Tocaram 0 Ainda não

    Grave um vídeo tocando Main Offender e mande pra gente!

    00:00 / 00:00
    outros vídeos desta música
    repetir qualidade Automático
    Outros vídeos desta música
    00:00 / 00:00
    Automático
    OK