Cifra Club

Aprenda

Tick Tick Boom

The Hives

Cifra: Principal (violão e guitarra)
Tom: G

From "The Black and White Album".

Tabbed by Franzypants.

This didn't take long, and it seems right to me.
Enjoy. 



Intro, verse:

"Yeeeeeeeeeeeeh, I was right all along..."

e|-------------|    -----------------|
B|-------------|    -----------------|
G|------9-7-7-7|X 1 --------9-7-7-7--| Keep playing this over, and over.
D|--9-9-9-7-7-7|    -09-9-9-9-7-7-7--| 
A|--9-9-7-5-5-5|    -09-9-9-7-5-5-5--|
E|--7-7--------|    -07-7-7----------|


Chorus:
 
cause i have done....                           ...or is it? tick(x8) BOOM!
  e|------------------------------------------------------------------0---|               
  B|------------------------------------------------------------------0---| 
  G|-----------9-9-9---12-12-12---7-7-7-------------------------------0---|     
  D|-----------9-9-9---12-12-12---7-7-7---7-7-7---5-5-5---------------0---|
  A|-----------7-7-7---10-10-10---5-5-5---7-7-7---5-5-5---------------0---|
  E|--------------------------------------5-5-5---3-3-3---------------0---|
                                                                             
                               (not 100% sure about what to play on "Boom!")

 
Breakdown, with palm mute (After second "boom!") :

     
         e|---------------------|
         B|---------------------|
         G|---------------------|
         D|----999999999--------| Keep going on that.
         A|----999999999--------|
         E|----777777777--------|

That's it. Hope you like it.
Composição de Randy Fitzsimmons
13.761 exibições
    • ½ Tom
    • A
    • Bb
    • B
    • C
    • Db
    • D
    • Eb
    • E
    • F
    • F#
    • G
    • Ab
  • Adicionar à lista

    0 comentários

    Mostrar mais comentários

    Conseguiu tocar?

    6 Tocaram 0 Ainda não

    Grave um vídeo tocando Tick Tick Boom e mande pra gente!

    00:00 / 00:00
    outros vídeos desta música
    repetir qualidade Automático
    Outros vídeos desta música
    00:00 / 00:00
    Automático
    OK