Cifra Club

Aprenda

Try It Again

The Hives

Cifra: Principal (violão e guitarra)
Tom: E
Intro/Verse:
   G1 G2 G1 G2 1/2
e|--------------------------------------------|
b|--------------------------------------------|
G|--------------------------------------------|
D|-----4-----4--------------------------------|
A|--9--2--9--2--2-----------------------------|
E|--7-----7-----0-----------------------------|

Chorus:
 
e|-------------------------------------------|
b|-------------------------------------------|
G|---------4-4-4-4---------------------------|
D|--7~-9~--4-4-4-4-2-------------------------|
A|--5~-7~--2-2-2-2-2-------------------------|
E|-----------------0-------------------------|
Composição de Randy Fitzsimmons
1.808 exibições
    • ½ Tom
    • A
    • Bb
    • B
    • C
    • Db
    • D
    • Eb
    • E
    • F
    • F#
    • G
    • Ab
  • Adicionar à lista

    0 comentários

    Mostrar mais comentários

    Conseguiu tocar?

    0 Tocaram 0 Ainda não

    Grave um vídeo tocando Try It Again e mande pra gente!

    00:00 / 00:00
    outros vídeos desta música
    repetir qualidade Automático
    Outros vídeos desta música
    00:00 / 00:00
    Automático
    OK