Cifra Club

Diva

The Kid LAROI

Cifra: Principal (violão e guitarra)
Selo Cifra Club: esta cifra foi revisada para atender aos critérios oficiais da nossa Equipe de Qualidade.
tom: D
[Intro]
E|-------------------|--------------------5--|
B|-----------5-----3-|-----------5-----3-----|
G|--6--2-------------|--6--2-----------------| (x2)
D|--------4-----4----|--------4-----4--------|
A|-------------------|-----------------------|
E|-------------------|-----------------------|


[Chorus]
  That lil' bitch a diva...
E|-------------------|--------------------5--|
B|-----------5-----3-|-----------5-----3-----|
G|--6--2-------------|--6--2-----------------| (x2)
D|--------4-----4----|--------4-----4--------|
A|-------------------|-----------------------|
E|-------------------|-----------------------|
                  
  We know shawty is a heater...
E|-------------------------|--------------------------17-|
B|--------------17------15-|--------------17------15-----|
G|--18--14-----------------|--18--14---------------------| (x2)
D|----------16------16-----|----------16------16---------|
A|-------------------------|-----------------------------|
E|-------------------------|-----------------------------|


[Verse 1]
 I don't want no friends, though...
E|-------------------|--------------------5--|
B|-----------5-----3-|-----------5-----3-----|
G|--6--2-------------|--6--2-----------------| (x4)
D|--------4-----4----|--------4-----4--------|
A|-------------------|-----------------------|
E|-------------------|-----------------------|

[Chorus]
  That lil' bitch a diva...
E|-------------------|--------------------5--|
B|-----------5-----3-|-----------5-----3-----|
G|--6--2-------------|--6--2-----------------| (x2)
D|--------4-----4----|--------4-----4--------|
A|-------------------|-----------------------|
E|-------------------|-----------------------|
                  
  We know shawty is a heater...
E|-------------------------|--------------------------17-|
B|--------------17------15-|--------------17------15-----|
G|--18--14-----------------|--18--14---------------------| (x2)
D|----------16------16-----|----------16------16---------|
A|-------------------------|-----------------------------|
E|-------------------------|-----------------------------|

[Verse 2]
  Band man, band man...
E|-------------------|--------------------5--|
B|-----------5-----3-|-----------5-----3-----|
G|--6--2-------------|--6--2-----------------| (x2)
D|--------4-----4----|--------4-----4--------|
A|-------------------|-----------------------|
E|-------------------|-----------------------|
                  
[Chorus]
  We know shawty is a heater...
E|-------------------------|--------------------------17-|
B|--------------17------15-|--------------17------15-----|
G|--18--14-----------------|--18--14---------------------| (x2)
D|----------16------16-----|----------16------16---------|
A|-------------------------|-----------------------------|
E|-------------------------|-----------------------------|
Outros vídeos desta música
    79 exibições
      • ½ Tom
      • A
      • Bb
      • B
      • C
      • Db
      • D
      • Eb
      • E
      • F
      • F#
      • G
      • Ab
    • Adicionar à lista

    Afinação da cifra

    Afinador online

      0 comentários

      Ver todos os comentários

      Entre para o Cifra Club PRO

      Tenha acesso a benefícios exclusivos no App e no Site

      • Chega de anúncios

      • Badges exclusivas

      • Mais recursos no app do Afinador

      • Atendimento Prioritário

      • Aumente seu limite de lista

      • Ajude a produzir mais conteúdo

      Cifra Club Pro

      Aproveite o Cifra Club com benefícios exclusivos e sem anúncios
      Cifra Club Pro
      Aproveite o Cifra Club com benefícios exclusivos e sem anúncios
      Ops (: Contenido disponible sólo en portugués.
      OK