Cifra Club

Aprenda

Battle Born

The Killers

Cifra: Principal (violão e guitarra)
tom: F#
Intro:

E|-----2------------------------------------------|
B|--4-----4--2--4----4--2--4----4--2--4--2-----2--|
G|------------------------------------------3-----|  x3
D|------------------------------------------------|
A|------------------------------------------------|
E|------------------------------------------------|

E|-----2----------------------------------------|
B|--4-----4--2--4----4--2--4--2--4--2-----------|
G|-------------------------------------4--1-----|
D|-------------------------------------------3--|
A|----------------------------------------------|
E|----------------------------------------------|

E|------2------------------------------------------|
B|--/4-----4--2--4----4--2--4----4--2--4--2-----2--|
G|-------------------------------------------3-----|
D|-------------------------------------------------|
A|-------------------------------------------------|
E|-------------------------------------------------|

E|-----2---------------------------------------|
B|--4-----4--2--4----4--2--4----2--2--4--2-----|
G|------------------------------------------2--|
D|---------------------------------------------|
A|---------------------------------------------|
E|---------------------------------------------|

F#    C#  B   C#  D#m   F#  G#m  G#m Bmaj9  B    C#

Verso 1:

F#                     C#
You lost faith in the human spirit
E                      B
You walk around like a ghost
Bm                  F#
Your star-spangled heart
G#m                   C#
Took a train for the coast

F#                       C#
When you shine you're a hilltop mansion
E                     B
So how'd you lose the light?
Bm                   F#
Was it blown by the wind,
G#m                  C#
In the still of the night?
B
We're up against the wall

Refrão

F#                   C#   B
Up against the wall
                           C#   D#m
There's something dying on  the street
                          F#   G#m
When they knock you down
                         G#m   Bmaj9
You're gonna get back on  your feet
B                       C#
(No you can't stop now)

Verso 2:


F#                     C#
I always saw you as a kind of keeper
E             B
A mother to a child
Bm                        F#
But your boys have grown soft
G#m                       C#    C#sus2
And your girls have gone wild

F#                   C#
From the blue ridge to the black hills
E              B
To the redwood sky
Bm              F#
The season may pass
G#m                    C#    C#sus2
But the dream doesn't die
B
Why did you drop the ball?

Refrão:

F#                   C#   B
Up against the wall
                           C#   D#m
There's something dying on  the street
                          F#   G#m
When they knock you down
                         G#m   Bmaj9
You're gonna get back on  your feet
B                       C#
(No you can't stop now)
F#                         C#  B
When they break your heart
                          C#  D#m
When they cause your soul to mourn
                      F#  G#m
Remember what I said
               G#m Bmaj9
Boy you was battle born
B                       C#
(No, you can't stop now)

Solo:
E|--11--14--11------11------11------11------11------11--------------|
B|--------------14--------------14--------------14------14--11--14--|
G|------------------------------------------------------------------|
D|------------------------------------------------------------------|
A|------------------------------------------------------------------|
E|------------------------------------------------------------------|

                        You was battle born
E|--11--14--11------11------11------11------11------11--------------|
B|--------------14--------------14--------------14------14--11--14--|
G|------------------------------------------------------------------|
D|------------------------------------------------------------------|
A|------------------------------------------------------------------|
E|------------------------------------------------------------------|

E|--11--14--11------11------11------11------11------11--------------|
B|--------------14--------------14--------------14------14--11--14--|
G|------------------------------------------------------------------|
D|------------------------------------------------------------------|
A|------------------------------------------------------------------|
E|------------------------------------------------------------------|

E|--11--14--11------11------11------11------11------------------|
B|--------------14--------------14------14------14--11----------|
G|------------------------------------------------------14--12--|
D|--------------------------------------------------------------|
A|--------------------------------------------------------------|
E|--------------------------------------------------------------|

(2nd guitar)
E|----------------|
B|--11-----11-----|
G|--13b15--13b15--|
D|----------------|
A|----------------|
E|----------------|

                         When the night falls on the land
E|--11--14--11------11------11------11------11------11--------------|
B|--------------14--------------14--------------14------14--11--14--|
G|------------------------------------------------------------------|
D|------------------------------------------------------------------|
A|------------------------------------------------------------------|
E|------------------------------------------------------------------|

                         Are you haunted by the sound?
E|--11--14--11------11------11------11------11------11--------------|
B|--------------14--------------14--------------14------14--11--14--|
G|------------------------------------------------------------------|
D|------------------------------------------------------------------|
A|------------------------------------------------------------------|
E|------------------------------------------------------------------|

E|--11--14--11------11------11------11------11------11--------------|
B|--------------14--------------14--------------14------14--11--14--|
G|------------------------------------------------------------------|
D|------------------------------------------------------------------|
A|------------------------------------------------------------------|
E|------------------------------------------------------------------|

E|--11--14--11------11------11------11------11------------------|
B|--------------14--------------14------14------14--11----------|
G|------------------------------------------------------13--11--|
D|--------------------------------------------------------------|
A|--------------------------------------------------------------|
E|--------------------------------------------------------------|

(2nd guitar)
E|----------------|
B|--11-----11-----|
G|--13b15--13b15--|
D|----------------|
A|----------------|
E|----------------|

                         It's gonna take more than a hand
E|--11--14--11------11------11------11------11------11--------------|
B|--------------14--------------14--------------14------14--11--14--|
G|------------------------------------------------------------------|
D|------------------------------------------------------------------|
A|------------------------------------------------------------------|
E|------------------------------------------------------------------|

                             To turn this thing around
E|--11--14--11------11------11------11------11------11--------------|
B|--------------14--------------14--------------14------14--11--14--|
G|------------------------------------------------------------------|
D|------------------------------------------------------------------|
A|------------------------------------------------------------------|
E|------------------------------------------------------------------|

                        Won't you lean it on me?
E|--6--9--6------6------6------6------6------6---------|
B|------------9------------9------------9-----9--6--|
G|------------------------------------------------------|
D|------------------------------------------------------|
A|------------------------------------------------------|
E|------------------------------------------------------|

    Rescue, set me free

E|-----2------------------------------------------|
B|--4-----4--2--4----4--2--4----4--2--4--2-----2--|
G|------------------------------------------3-----|
D|------------------------------------------------|
A|------------------------------------------------|
E|------------------------------------------------|

F#                   C#   B
Up against the wall
                           C#   D#m
There's something dying on  the street
                          F#   G#m
When they knock you down
                         G#m  Bmaj9
You're gonna get back on  your feet
B                       C#
(No you can't stop now)
F#                         C#  B
When they break your heart
                          C#  D#m
When they cause your soul to mourn
                      F#  G#m
Remember what I said
               G#m  Bmaj9
Boy you was battle born
B                        C#
(No, you can't stop now)
F#                     C#   B
Come on show your face
                       C#   D#m
Come on give us one more spark
                       F#   G#m
So we'll start a fire
                       G#m  Bmaj9
Unless we fall into the dark
                        B C#
(And you can't stop now)
F#
You never know
                    C#  B
If you never learn

You never shine
                   C# D#m
If you never burn

The rising tide
              F#  G#m
The undertow

The venom and
              G#m   Bmaj9
The overflow

You turn away
             C#   F#
Welcome home
Composição de Brandon Flowers / David Keuning / Mark Stoermer / Ronnie Vannucci
Colaboração e revisão:
  • Gabriel Martins
3.242 exibições
    • ½ Tom
    • A
    • Bb
    • B
    • C
    • Db
    • D
    • Eb
    • E
    • F
    • F#
    • G
    • Ab
  • Adicionar à lista

    0 comentários

    Ver todos os comentários

    Conseguiu tocar?

    1 Tocaram 0 Ainda não

    Grave um vídeo tocando Battle Born e nos envie!

    00:00 / 00:00
    Outros vídeos desta música
    Repetir Qualidade Automático
    Outros vídeos desta música
    00:00 / 00:00
    Automático

    Cifra Club Pro

    Aproveite o Cifra Club com benefícios exclusivos e sem anúncios
    Cifra Club Pro
    Aproveite o Cifra Club com benefícios exclusivos e sem anúncios
    OK