Cifra Club

Mr. Brightside

The Killers

Cifra: Principal
exibições 243.468
Tom: C# (com acordes na forma de D) Afinação: Eb Ab Db Gb Bb Eb
Introdução: D9  D9/C#  G7M(6)


   D9
E|-------------0----------------------------|
B|---------------17-------------------------|
G|-------19---------19----------------------|
D|----16----16---------16-------------------|
A|-17---------------------------------------|
E|------------------------------------------|


   D9/C#
E|-------------0----------------------------|
B|---------------17-------------------------|
G|-------19---------19----------------------|
D|----16----16---------16-------------------|
A|-16---------------------------------------|
E|------------------------------------------|


   G7M(6)
E|-------------0----------------------------|
B|---------------17-------------------------|
G|-------19---------19----------------------|
D|----16----16---------16-------------------|
A|------------------------------------------|
E|-15---------------------------------------|


E|-------------0----------------------------|
B|---------------17-------------------------|
G|-------19---------19----------------------|
D|----16----16---------16-------------------|
A|------------------------------------------|
E|-15---------------------------------------|



Primeira Parte:

D9                   D9/C#
   Coming out of my cage 
                          G7M(6)
And I've been doing just fine

Gotta, gotta be down
                      D9
Because I want it all
                       D9/C#
It started out with a kiss
                         G7M(6)
How did it end up like this?

It was only a kiss
                   D9
It was only a kiss
                   D9/C#
Now I'm falling asleep 
                     G7M(6)
And she's calling a cab

While he's having a smoke 
                        D9
And she's taking a drag
                      D9/C#
Now they're going to bed 
                   G7M(6)
And my stomach is sick

And it's all in my head


Pré-Refrão:


   Bm11
E|---------0---------------0----------------|
B|-----------5---------------5--------------|
G|-----7-------7-------7-------7------------|
D|---0---0-------0---0---0-------0----------|
A|------------------------------------------|
E|-7---------------7------------------------|


   A4
E|---------0---------------0----------------|
B|-----------5---------------5--------------|
G|-----7-------7-------7-------7------------|
D|---0---0-------0---0---0-------0----------|
A|------------------------------------------|
E|-5---------------5------------------------|


   G6
E|---------0---------------0----------------|
B|-----------5---------------5--------------|
G|-----7-------7-------7-------7------------|
D|---0---0-------0---0---0-------0----------|
A|------------------------------------------|
E|-3---------------3------------------------|


E|---------0---------------0----------------|
B|-----------5---------------5--------------|
G|-----7-------7-------7-------7------------|
D|---0---0-------0---0---0-------0----------|
A|------------------------------------------|
E|-3---------------3------------------------|


                         Bm11
But she's touching his chest now
                   A4
He takes off her dress
             G6  Bm11
Now, let me go
                  
And I just can't look
      A4
It's killing me
     G6
And taking control


Refrão:


E|-----------------------------------------------------|
B|-----------------------------------------------------|
G|-11----11----11----11----12----12----12----12--------|
D|----12----12----12----12----12----12----12----12-----|
A|-----------------------------------------------------|
E|-----------------------------------------------------|


E|-----------------------------------------------------|
B|-----------------------------------------------------|
G|-14----14----14----14----9---7---6---7---------------|
D|----12----12----12----12---7---7---7---7-------------|
A|-----------------------------------------------------|
E|-----------------------------------------------------|


E|-----------------------------------------------------|
B|-----------------------------------------------------|
G|-11----11----11----11----12----12----12----12--------|
D|----12----12----12----12----12----12----12----12-----|
A|-----------------------------------------------------|
E|-----------------------------------------------------|


E|-----------------------------------------------------|
B|-----------------------------------------------------|
G|-14----14----14----14----9---7---6---7---------------|
D|----12----12----12----12---7---7---7---7-------------|
A|-----------------------------------------------------|
E|-----------------------------------------------------|


E|-5-----5-----5---7-----7-----7-----------------------|
B|---7-----7-----7---8-----8-----8---------------------|
G|-----7-----7---------7-----7-------------------------|
D|-----------------------------------------------------|
A|-----------------------------------------------------|
E|-----------------------------------------------------|


E|-10-----10-----10------------------------------------|
B|----7------7------7----------------------------------|
G|------7------7------9---7---6---7--------------------|
D|----------------------7---7---7---7------------------|
A|-----------------------------------------------------|
E|-----------------------------------------------------|


E|-5-----5-----5---7-----7-----7-----------------------|
B|---7-----7-----7---8-----8-----8---------------------|
G|-----7-----7---------7-----7-------------------------|
D|-----------------------------------------------------|
A|-----------------------------------------------------|
E|-----------------------------------------------------|


E|-10-----10-----10------------------------------------|
B|----7------7------7----------------------------------|
G|------7------7------9---7---6---7--------------------|
D|----------------------7---7---7---7------------------|
A|-----------------------------------------------------|
E|-----------------------------------------------------|


 D5
Jealousy
 G5               B5
Turning saints into the sea
  A5                   D5
Swimming through sick lullabies
  G5            B5
Choking on your alibis
 A5                 D5
But it's just the price I pay
 G5         B5
Destiny is calling me
A5         D5      G5  B5
Open up my eager eyes
                 A5
'Cause I'm Mr. Brightside


Interlúdio: D5  G5  B5  A5 (2x)


E|-----------------------------------------------------|
B|-----------------------------------------------------|
G|-11----11----11----11----14----14----14----14--------|
D|----12----12----12----12----12----12----12----12-----|
A|-----------------------------------------------------|
E|-----------------------------------------------------|


E|-----------------------------------------------------|
B|-----------------------------------------------------|
G|-14----14----14----14----9---7---6---7---------------|
D|----12----12----12----12---7---7---7-----------------|
A|-----------------------------------------------------|
E|-----------------------------------------------------|



Segunda Parte:

D9                       D9/C#
   I'm coming out of my cage 
                          G7M(6)
And I've been doing just fine
 
Gotta, gotta be down
                      D9
Because I want it all
                       D9/C#
It started out with a kiss
                         G7M(6)
How did it end up like this?

(It was only a kiss)
                   D9
It was only a kiss
                   D9/C#
Now I'm falling asleep 
                     G7M(6)
And she's calling a cab

While he's having a smoke 
                        D9
And she's taking a drag
                      D9/C#
Now they're going to bed 
                   G7M(6)
And my stomach is sick

And it's all in my head


Pré-Refrão:
 
                         Bm11
But she's touching his chest now
                   A4
He takes off her dress
             G6  Bm11
Now, let me go
                                A4
'Cause I just can't look, it's killing me
     G6
And taking control


Refrão:

 D5
Jealousy
 G5               B5
Turning saints into the sea
  A5                   D5
Swimming through sick lullabies
  G5            B5
Choking on your alibis
 A5                 D5
But it's just the price I pay
 G5         B5
Destiny is calling me
A5         D5      G5  B5
Open up my eager eyes
                 A5
'Cause I'm Mr. Brightside


Final:

(Parte 1 - 2x)


E|-----------------------------------------------------|
B|-----------------------------------------------------|
G|-11----11----12----14----16----14----12----11--------|
D|----12----12----12----12----12----12----12----12-----|
A|-----------------------------------------------------|
E|-----------------------------------------------------|


E|-----------------------------------------------------|
B|-----------------------------------------------------|
G|-11----11----12----11----9---7---6-------------------|
D|----12----12----12----12---7---7---------------------|
A|-----------------------------------------------------|
E|-----------------------------------------------------|



(Parte 2 - 3x)


E|-----------------------------------------------------|
B|-----------------------------------------------------|
G|-11----11----11----11----14----14----14----14--------|
D|----12----12----12----12----12----12----12----12-----|
A|-----------------------------------------------------|
E|-----------------------------------------------------|


E|-----------------------------------------------------|
B|-----------------------------------------------------|
G|-14----14----14----14----9---7---6---7---------------|
D|----12----12----12----12---7---7---7---7-------------|
A|-----------------------------------------------------|
E|-----------------------------------------------------|



(Parte 3)


E|-----------------------------------------------------|
B|-----------------------------------------------------|
G|-11----11----11----11----14----14----14----14--------|
D|----12----12----12----12----12----12----12----12-----|
A|-----------------------------------------------------|
E|-----------------------------------------------------|


E|-----------------------------------------------------|
B|-----------------------------------------------------|
G|-14----14----14----14----9---7---6-------------------|
D|----12----12----12----12---7---7-7-------------------|
A|-----------------------------------------------------|
E|-----------------------------------------------------|


   D5   G5  B5  A5
I never
   D5   G5  B5  A5
I never
   D5   G5  B5  A5
I never
   D5   G5  B5  A5
I never
Acordes para:

    0 comentários

      mostrar mais comentários

      Conseguiu tocar?

      22tocaram0ainda não

      Grave um vídeo tocando Mr. Brightside e mande pra gente!

      00:00 / 00:00
      outros vídeos desta música
      repetirqualidadeautomática
      Outro vídeos desta música
        00:00 / 00:00
        automática
        OK