Cifra Club

Run For Cover

The Killers

Cifra: Principal (violão e guitarra)
exibições 1.032
Tom: F
[Intro]  A#  Dm  F  Gm
         A#  Dm  F  C
         A#  Dm  F  Gm
         A#  Dm  F  C
         A#      C  Dm
         A#      C

[Guitar 1]   
                                                                                             
    A#5                      D5                       F5                        G5
E|------------------------|------------------------|-------------------------|-------------------------| 
B|------------------------|------------------------|-------------------------|-------------------------| 
G|-3--3--3--3--3--3--3--3-|/7--7--7--7--7--7--7--7-|/10-10-10-10-10-10-10-10-|/12-12-12-12-12-12-12-12-|
D|------------------------|------------------------|-------------------------|-------------------------| 
A|-1--1--1--1--1--1--1--1-|/5--5--5--5--5--5--5--5-|/8--8--8--8--8--8--8--8--|/10-10-10-10-10-10-10-10-| 
E|------------------------|------------------------|-------------------------|-------------------------| 
                                                                                                         
[Guitar 2]  
                                                                                             
E|------------------------|------------------------|-------------------------|-------------------------| 
B|------------------------|------------------------|-------------------------|-------------------------| 
G|------------------------|------------------------|-------------------------|-------------------------| 
D|-7--7--7--7--7--7--7--7-|-7--7--7--7--7--7--7--7-|-7--7--7--7--7--7--7--7--|-7--7--7--7--7--7--7--7--| 
A|------------------------|------------------------|-------------------------|-------------------------| 
E|------------------------|------------------------|-------------------------|-------------------------| 
                                                                                                         
[Guitar 1] 
                                                                                               
    A#5                      D5                       F5                        C
E|------------------------|------------------------|-------------------------|-------------------------| 
B|------------------------|------------------------|-------------------------|-------------------------| 
G|-3--3--3--3--3--3--3--3-|/7--7--7--7--7--7--7--7-|/10-10-10-10-10-10-10-10-|-9--9--9--9--9--9--9--9--| 
D|------------------------|------------------------|-------------------------|-10-10-10-10-10-10-10-10-| 
A|-1--1--1--1--1--1--1--1-|/5--5--5--5--5--5--5--5-|/8--8--8--8--8--8--8--8--|-10-10-10-10-10-10-10-10-| 
E|------------------------|------------------------|-------------------------|-8--8--8--8--8--8--8--8--| 
                                                                                                         
[Guitar 2]  
                                                                                              
E|------------------------|------------------------|-------------------------|-------------------------| 
B|------------------------|------------------------|-------------------------|-------------------------| 
G|------------------------|------------------------|-------------------------|-------------------------| 
D|-7--7--7--7--7--7--7--7-|-7--7--7--7--7--7--7--7-|-7--7--7--7--7--7--7--7--|-7--7--7--7--7--7--7--7--| 
A|------------------------|------------------------|-------------------------|-------------------------| 
E|------------------------|------------------------|-------------------------|-------------------------| 

[Guitar 1]

    A#                                                C                         Dm
E|------------------------|------------------------|-------------------------|-------------------------|
B|------------------------|------------------------|-------------------------|-------------------------|
G|-3--3--3--3--3--3--3--3-|-3--3--3--3--3--3--3--3-|-5--5--5--5--5--5--5--5--|-7--7--7--7--7--7--7--7--|
D|-3--3--3--3--3--3--3--3-|-3--3--3--3--3--3--3--3-|-5--5--5--5--5--5--5--5--|-7--7--7--7--7--7--7--7--|
A|-1--1--1--1--1--1--1--1-|-1--1--1--1--1--1--1--1-|-3--3--3--3--3--3--3--3--|-5--5--5--5--5--5--5--5--|
E|------------------------|------------------------|-------------------------|-------------------------|

[Guitar 2]

E|------------------------|------------------------|-------------------------|-------------------------|
B|------------------------|-10---------------------|-------------------------|-10----------------------|
G|-10----------------7----|-------------------7----|-10----------------7-----|-------------------7-----|
D|------------------------|------------------------|-------------------------|-------------------------|
A|------------------------|------------------------|-------------------------|-------------------------|
E|------------------------|------------------------|-------------------------|-------------------------|

[Guitar 1]

    A#                                                C
E|------------------------|------------------------|-------------------------|-------------------------|
B|------------------------|------------------------|-------------------------|-------------------------|
G|-3--3--3--3--3--3--3--3-|-3--3--3--3--3--3--3--3-|-5--5--5--5--5--5--5--5--|-5--5--5--5--5--5--5--5--|
D|-3--3--3--3--3--3--3--3-|-3--3--3--3--3--3--3--3-|-5--5--5--5--5--5--5--5--|-5--5--5--5--5--5--5--5--|
A|-1--1--1--1--1--1--1--1-|-1--1--1--1--1--1--1--1-|-3--3--3--3--3--3--3--3--|-3--3--3--3--3--3--3--3--|
E|------------------------|------------------------|-------------------------|-------------------------|

[Guitar 2]

E|------------------------|------------------------|-------------------------|-------------------------|
B|------------------------|------------------------|-10----------------------|-------------------------|
G|-10---------------------|------------------------|-------------------------|-------------------------|
D|------------------------|------------------------|-------------------------|-------------------------|
A|------------------------|------------------------|-------------------------|-------------------------|
E|------------------------|------------------------|-------------------------|-------------------------|

F                            Gm
  What have you gathered to report to your progenitors?
Am                      Gm
  Are your excuses any better than your senator's?
F                               Gm
  He held a conference and his wife was standing by his side
C
  He did her dirty but no one died

Dm                             Am/E
  I saw Sonny Liston on the street last night
       F                         Gm         A#
Black-fisted and strong singing Redemption Song
                        C
He motioned me to the sky
         F
I heard heaven and thunder cry


A#            Dm
   Run for cover
               F                    Gm
Run while you can baby, don't look back
                   A#   Dm
You gotta run for cover
         F                              C
Don't be afraid of the fear, that's a played out trap, man
Am       A#                C    Dm
   You know you're not the only one
A#                            C
   And don't look back, just run for cover

F                              Gm
  What are you waiting for, a kiss or an apology?
Am                                Gm
   You think by now you'd have an A in toxicology
F                                 Gm
   It's hard to pack the car when all you do is shame us
C
   It's even harder when the dirtbag's famous

Dm                          Am/E
  I saw my mother on the street last night
      F                    Gm            A#
All pretty and strong, singing "the road is long"
                               C
I said "Momma, I know you've tried"
But she fell on her knees and cried

 
A#            Dm
   Run for cover
               F                    Gm
Run while you can baby, don't look back
                   A#   Dm
You gotta run for cover
         F                              C
Don't be afraid of the fear, that's a played out trap, man
Am     A#                C    Dm
   I know you're not the only one
A#                            C
   And don't look back, just run for cover

Am                A#                   Dm
   And there was nothing she wouldn't give
          A#                Am                    A#
Just to trust him with her nightmares, with her dreams
           Dm             C
Now she's running, she's running
          A#
Just to trust him

Dm
  He got big smile, he's fake news
F
  Just run for cover, you've got nothing left to lose

           Dm
Run for cover
               F                    Gm
Run while you can baby, don't look back
                   A#   Dm
You gotta run for cover
         F                              C
Don't be afraid of the fear, that's a played out trap, man 
Am       A#                C    Dm
   You know you're not the only one
A#                           C
  And don't look back, just run for cover, run!

 A#  Dm  F   Gm
 A#  Dm  F   C
 A#      C   Dm
 A#      C
Acordes para:
    Colaboração e revisão:
    • Marcos Paulo

    0 comentários

    mostrar mais comentários

    Conseguiu tocar?

    0 tocaram 0 ainda não

    Grave um vídeo tocando Run For Cover e mande pra gente!

    00:00 / 00:00
    outros vídeos desta música
    repetir qualidade Automático
    Outros vídeos desta música
    00:00 / 00:00
    Automático
    OK