Enviar cifraEntrar

When You Were Young

The Killers

Cifra: Principal
exibições 194.962
Tom: C
Intro:

(guitarra 1)

E|-----------------------------------------------------------------------------|
B|-----------------------------------------------------------------------------|
G|-------5------7------9------12------5----------------------------------------|
D|-------5--x8--7--x4--9--x4--12--x8--5--x8------------------------------------|
A|-------3------5------7------10------3----------------------------------------|
E|-------------------------------------------------------------------------------|

(guitarra 2)

E|-----------4--2-----------------4--2---------------------------------------|
B|--------------------------------------------------------------------------|
G|----1-4-----------3----1-4-------------1------------------------------------|
D|---------------------------------------------------------------------------|
A|---------------------------------------------------------------------------|
E|---------------------------------------------------------------------------|


(0:18 - 0:32)

Pré-Refrão:

(guitarra 1)

E|-----------------------------------------------------------|
B|-----------------------------------------------------------|
G|------------9------11-------13-------16-----9--------------|
D|----------9------11------13-------16------9----------------|
A|---------7------9------11------14--------7-----------------|
E|-----------------------------------------------------------|

(guitarra 2)

E|-----------------------------------------------------------|
B|-----------------------------------------------------------|
G|---------9------11-----13------16------9-------------------|
D|---------9--x8--11--x4-13--x4--16--x8--9---x8--------------|
A|---------7------9------11------14------7-------------------|
E|-----------------------------------------------------------|


E|-----------4--2-----------------4--2---------------------------------------|
B|--------------------------------------------------------------------------|
G|----1-4-----------3----1-4-------------1------------------------------------|
D|---------------------------------------------------------------------------|
A|---------------------------------------------------------------------------|
E|---------------------------------------------------------------------------|


Pré-Refrão:

(guitarra 1)

E|-----------------------------------------------------------|
B|-----------------------------------------------------------|
G|------------9------11-------13-------16-----9--------------|
D|----------9------11------13-------16------9----------------|
A|---------7------9------11------14--------7-----------------|
E|-----------------------------------------------------------|

(guitrra 2)

E|-----------------------------------------------------------|
B|-----------------------------------------------------------|
G|---------9------11-----13------16------9-------------------|
D|---------9--x8--11--x4-13--x4--16--x8--9---x8--------------|
A|---------7------9------11------14------7-------------------|
E|-----------------------------------------------------------|


E|-----------4--2-----------------4--2---------------------------------------|
B|---------------------------------------------------------------------------|
G|----1-4-----------3----1-4-------------1-----------------------------------|
D|---------------------------------------------------------------------------|
A|---------------------------------------------------------------------------|  (2x)
E|---------------------------------------------------------------------------|


E|-----------------------------------------------------------|
B|-----------------------------------------------------------|
G|------------9------11-------13-------16-----9--------------|
D|----------9------11------13-------16------9----------------|
A|---------7------9------11------14--------7-----------------|
E|-----------------------------------------------------------|


Solo:

E|-----12-12-12-12-12-12-12-12-12-12-12-12-12-12-----------------------------|
B|------------------------------------------------8-8-8-10-10-10-10----------|
G|---------------------------------------------------------------------------|
D|---------------------------------------------------------------------------|
A|---------------------------------------------------------------------------|
E|---------------------------------------------------------------------------|


E|-------------17--15--------12--------------------17--15-------|
B|-----8h10-------------12--------13-----8h10---------------10--|
G|--------------------------------------------------------------|
D|--------------------------------------------------------------|
A|--------------------------------------------------------------|
E|--------------------------------------------------------------|


E|-------------------------------------------------------------------------------|
B|-------------------------------------------------------------------------------|
G|----12----9--------------------------------------------------------------------|
D|----12-x3-9-x3-12----10-----10-9-7-5-------------------------------------------|
A|----10----7----12-x3-10-x3--10-9-7-5-------------------------------------------|
E|---------------10-----8------8-7-5-3-------------------------------------------|


( 1:55 - 2:11 )

             Dm                                 F                        Am
They Say The Devil's Water It Aint So Sweet You Dont Have To Drink Right Now
Em                      Am     G
   But You Can Dip Your Feet, Every Once In A Little While

Nessa parte abaixo as palhetadas mudam de ritimo.

Solo 2:

E|-----11-11-11-11-11-11-11-11-11-11--------------------------------|
B|------------------------------------7-7-7-9-9-9-9-9-9-9-9---------|
G|------------------------------------------------------------------|
D|------------------------------------------------------------------|
A|------------------------------------------------------------------|
E|------------------------------------------------------------------|


E|----14-14-14-14-14-14-14-14-14-14---------------------------------|
B|------------------------------------7-7-7-9-9-9-9-9-9-9-9---------|
G|------------------------------------------------------------------|
D|------------------------------------------------------------------|
A|------------------------------------------------------------------|
E|------------------------------------------------------------------|


E|-------------16--14--------16-16-------------------16--14------|
B|-----9h11-------------------------------9h11-------------------|
G|----------------------15----------16-----------------------13--| (3x)
D|---------------------------------------------------------------|
A|---------------------------------------------------------------|
E|---------------------------------------------------------------|


Final:

E|---------------------------------------------------------|
B|---------------------------------------------------------|
G|----9----8----6----4-------------------------------------|
D|----9-x3-8-x3-6-x3-4-x4--------4-------------------------|
A|----7----6----4----2----1------4-------------------------|
E|----------------------------4--2-------------------------|
  • 1
  • 2
  • 3
  • 4
  • 5
  • 6
  • 7
  • 8
  • 9
  • 10
  • 11
  • 12
    Acordes para:

      0 comentários

        mostrar mais comentários

        Conseguiu tocar?

        38tocaram4ainda não

        Grave um vídeo tocando When You Were Young e mande pra gente!

        00:00 / 00:00
        outros vídeos desta música
        repetirqualidadeautomática
        • automática
        Outro vídeos desta música
          00:00 / 00:00
          automática
          • automática
          fecharplay/pause subir/descer velocidade
            acordes
            fechar
            OK
            Feedback