Cifra Club

Black Friday Cifra Club

Seaside

The Kooks

Cifra: Principal (violão e guitarra)
tom: F#
D#m                          F#
    Do you want to go to the seaside?
B                          C#
I'm not trying to say that everybody wants to go
D#m                   F#
I fell in love at the seaside
B                       C#                 G#      F#
I handled my charm with time and slight of hand

D#m                          F#
    Do you want to go to the seaside?
B                          C#
I'm not trying to say that everybody wants to go
D#m                   F#
I fell in love at the seaside
B                       C#                    G#      F#
She handled her charm with time and slight of hand

D#m                          B            C#
      But i'm just trying to love you any kind of way
D#m                         B                       C#   G#     F#
      But i find it hard to love you girl when your far away ... away

 D#m

                                            Do you want to go to the
|------------------------------------------------------------------|
|------------------------------------------------------------------|
|------------------------------------------------------------------|
|-8---8---8---8---8---8---8---8---8---8---8---8---8---8---8---8----|
|---6---6---8---6---6---6---6---6---6---6---6---6---6---6---6---6--|
|------------------------------------------------------------------|

   F#                                  B
      seaside?                I'm  not     trying to  say   that
|-------------------------------------------------------------------------|
|-------------------------------------------------------------------------|
|-------------------------------------------------------------------------|
|--11---11---11---11---11---11---11---11----------------------------------|
|-----9----9----9----9----9----9----9-----9---9---9---9---9---9---9---9---|
|----------------------------------------------7---7---7---7---7---7---7--|
C#
      everybody     wants      to
|---------------------------------------|
|---------------------------------------|
|---------------------------------------|
|---------------------------------------|
|-11---11---11---11---11---11---11---11-|
|-----9----9----9----9----9----9----9---|

  D#m                                                     F#
 go But  I  fell  in  love  at  the                    seaside
|---------------------------------------------------------------------------|
|---------------------------------------------------------------------------|
|---------------------------------------------------------------------------|
|-8---8---8---8---8---8---8---8------11---11---11---11---11---11---11---11--|
|---6---6---6---6---6---6---6---6-------9----9----9----9----9----9----9----9|
|---------------------------------------------------------------------------|

B                                 F#
                       on  the   seaside
|-------------------------------------------------------------------------|
|-------------------------------------------------------------------------|
|-------------------------------------------------------------------------|
|---------------------------------9----9----9----9----9----9----9----9----|
|-9---9---9---9---9---9---9---9-----11---11---11---11---11---11---11---11-|
|---7---7---7---7---7---7---7---7-----------------------------------------|

B                                 F#
                       in  the   seaside
|-------------------------------------------------------------------------|
|-------------------------------------------------------------------------|
|-------------------------------------------------------------------------|
|---------------------------------9----9----9----9----9----9----9----9----|
|-7---7---7---7---7---7---7---7-----11---11---11---11---11---11---11---11-|
|---9---9---9---9---9---9---9---9-----------------------------------------|
00:00 / 00:00
Outros vídeos desta música
Repetir
Outros vídeos desta música
Composição de Hugh Harris / Luke Pritchard / Max Rafferty
Colaboração e revisão:
171.789 exibições
  • Simplificar cifra
    • ½ Tom
    • A
    • Bb
    • B
    • C
    • Db
    • D
    • Eb
    • E
    • F
    • F#
    • G
    • Ab
  • Adicionar à lista

    0 comentários

    Ver todos os comentários

    Entre para oCifra Club PRO

    Tenha acesso a benefícios exclusivos no App e no Site

    • Chega de anúncios

    • Prioridade de compra em lançamentos

    • Mais recursos no app do Afinador

    • Atendimento Prioritário

    • Descontos nos produtos Cifra Club

    • Ajude a produzir mais conteúdo

    00:00 / 00:00

    Cifra Club Pro

    Aproveite o Cifra Club com benefícios exclusivos e sem anúncios
    Cifra Club Pro
    Aproveite o Cifra Club com benefícios exclusivos e sem anúncios
    OK