Cifra Club

Aprenda

Arsenic

The Loved Ones

Cifra: Principal (violão e guitarra)
tom: F
chezklist

just figure out the strumming
(This is all for rythum guitar, Lead uses
a mix of bar chords Im guessing?)

Intro

E---------------------------------------------------------------|
B---------------------------------------------------------------|
G------2----2-----------2-----2----------2-----2----------------|
D-0-3---0-3--3-2------3----3---3--2----3-----3---3--2-----------|
A------------------1-----1--------------------------------------|
E------------------------------------1------1-------------------|

E-
B-
G-
D-5
A-3
E-


verse

E-----------------|
B-----------------|
G-----------------|
D-7---3--------5--|
A-5---1---3----3--|
E---------1-------|


chorus

E--------------|
B--------------|
G-----3------5-|
D-5---3--3---5-|
A-5---1--3---3-|
E-3------1-----|

E-----------------|
B-----------------|
G-----2----2----2-| 
Composição de Dave Hause / The Loved Ones
339 exibições
    • ½ Tom
    • A
    • Bb
    • B
    • C
    • Db
    • D
    • Eb
    • E
    • F
    • F#
    • G
    • Ab
  • Adicionar à lista

    0 comentários

    Ver todos os comentários

    Conseguiu tocar?

    0 Tocaram 0 Ainda não

    Grave um vídeo tocando Arsenic e nos envie!

    00:00 / 00:00
    outros vídeos desta música
    repetir qualidade Automático
    Outros vídeos desta música
    00:00 / 00:00
    Automático

    Cifra Club Pro

    Aproveite o Cifra Club com benefícios exclusivos e sem anúncios
    Cifra Club Pro
    Aproveite o Cifra Club com benefícios exclusivos e sem anúncios
    OK