Cifra Club

Since We've Been Wrong

The Mars Volta

Cifra: Principal (violão e guitarra)
tom: C
(1:37)
e|----------------------------0-------------------0~--||
b|-----1-----0--------------1---1----------1------1~--||
G|-----------------0------2-------2------2---2----2~--|| repeat
d|---2-----2------------3--------------2-------2--2~--||
a|-0-----3-------2----3--------------0------------0~--||
e|-------------3--------------------------------------||

(right)
e|-17-----15---------------------|-17-----15---------------17--||
b|----17-----15--17----15--------|----17-----15--17----15------||
G|------------------17--------16-|------------------17---------|| repeat
d|-------------------------------|-----------------------------||
a|-------------------------------|-----------------------------||
e|-------------------------------|-----------------------------||

(left)
e|-------------------------------|-----------------------------||
b|-17-----15-----12--------------|-17----15-----12---------17--||
G|----16-----14-----12--14-------|----16----14-----12-14-------|| repeat
d|----------------------------14-|-----------------------------||
a|-------------------------------|-----------------------------||
e|-------------------------------|-----------------------------||

Do you remember how you wore that dress?
It slit my sight beneath the eyelids
Do you remember what you said to me?
What course has given you the right to stray?

And in your living tomb i'm stuck but safe
The clocks are ticking fast with every breath

2:17

e|------7-8-7-----------8-7-8-7------------------||
b|---10--------------10---------8---10-----------||
g|-9---------------9---------------------8^full--||
d|-----------------------------------------------||
a|-----------------------------------------------||
e|-----------------------------------------------||

e|------7-8-7-----------8-7------------------11^half--||
b|---10--------------10-----10--8----/10--------------||
g|-9---------------9----------------------------------||
d|----------------------------------------------------||
a|----------------------------------------------------||
e|----------------------------------------------------||

                 Dm
Since we've been wrong
          Am
I've been part awake
                 Dm
Since we've been wrong
                     Am
You will never, ever know me
                 Dm
What took you so long?
        Am
I'm not sure all the way
       E
But my heart, it asks
Just one more time

Are you still a mess?

(lead)
e|--------19-20-19--17-15-17----|-------19-20-19--17-15-17-----||
b|--17-18--------------------17-|-17-18--------------------17--||
g|------------------------------|------------------------------||
d|------------------------------|------------------------------||
a|------------------------------|------------------------------||
e|------------------------------|------------------------------||

e|--------19-20-19--17-15-17-----22-20-19-17-19-20-19-17-17---17-15-17-19-19-20--||
b|--17-18------------------------------------------------------------------------||
g|-------------------------------------------------------------------------------||
d|-------------------------------------------------------------------------------||
a|-------------------------------------------------------------------------------||
e|-------------------------------------------------------------------------------||

e|----------------------------0-------------------0~--||
b|-----1-----0--------------1---1----------1------1~--||
G|-----------------0------2-------2------2---2----2~--|| repeat
d|---2-----2------------3--------------2-------2--2~--||
a|-0-----3-------2----3--------------0------------0~--||
e|-------------3--------------------------------------||

(right)
e|-17-----15---------------------|-17-----15---------------17--||
b|----17-----15--17----15--------|----17-----15--17----15------||
G|------------------17--------16-|------------------17---------|| repeat
d|-------------------------------|-----------------------------||
a|-------------------------------|-----------------------------||
e|-------------------------------|-----------------------------||

(left)
e|-------------------------------|-----------------------------||
b|-17-----15-----12--------------|-17----15-----12---------17--||
G|----16-----14-----12--14-------|----16----14-----12-14-------|| repeat
d|----------------------------14-|-----------------------------||
a|-------------------------------|-----------------------------||
e|-------------------------------|-----------------------------||

One day a rain will come to wash away
The earth that held us was no island
I have become ingrown inside this skin
I'll find a way out through those eyelids

And all the days become a castaway
I seem to think i don't belong here

4:04
e|------8-7-------------8-7-8-7--8----10---------||
b|---10--------------10----------------------12--||
g|-9---------------9-----------------------------||
d|-----------------------------------------------||
a|-----------------------------------------------||
e|-----------------------------------------------||

e|------7-8-7-----------8-7------------------11^half--||
b|---10--------------10-----10--8----/10--------------||
g|-9---------------9----------------------------------||
d|----------------------------------------------------||
a|----------------------------------------------------||
e|----------------------------------------------------||

                 Dm
Since we've been wrong
          Am
I've been part awake
                 Dm
Since we've been wrong
                     Am
You will never, ever know me
                 Dm
What took you so long?
        Am
I'm not sure all the way
       E
But my heart, it asks
Just one more time

Are you still a mess?

(lead)
e|--------19-20-19--17-15-17----|-------19-20-19--17-15-17-----||
b|--17-18--------------------17-|-17-18--------------------17--||
g|------------------------------|------------------------------||
d|------------------------------|------------------------------||
a|------------------------------|------------------------------||
e|------------------------------|------------------------------||

e|--------19-20-19--17-15-17-----22-20-19-17-19-20-19-17-17---17-15-17-19-19-20--||
b|--17-18------------------------------------------------------------------------||
g|-------------------------------------------------------------------------------||
d|-------------------------------------------------------------------------------||
a|-------------------------------------------------------------------------------||
e|-------------------------------------------------------------------------------||

(ponte)
Am        G         F7M
I don't belong here, i shouldn't stay
Am           G             F7M
What falls inside me grows empty
Am          G       F7M
The walls between us will never break
Am           G              F7M
Just seal it shut, it grows empty

                 Dm
Since we've been wrong
          Am
I've been part awake
                 Dm
Since we've been wrong
                     Am
You will never, ever know me
                 Dm
What took you so long?
        Am
I'm not sure all the way
       E
But my heart, it asks
Just one more time
Are you still a mess?

(lead)

e|--------19-20-19--17-15-17----|-------19-20-19--17-15-17-----||
b|--17-18--------------------17-|-17-18--------------------17--||
g|------------------------------|------------------------------||
d|------------------------------|------------------------------||
a|------------------------------|------------------------------||
e|------------------------------|------------------------------||

e|--------19-20-19--17-15-17-----22-20-19-17-19-20-19-17-17---17-15-17-19-19-20--||
b|--17-18------------------------------------------------------------------------||
g|-------------------------------------------------------------------------------||
d|-------------------------------------------------------------------------------||
a|-------------------------------------------------------------------------------||
e|-------------------------------------------------------------------------------||
Composição de Cedric Bixler-Zavala / Omar Rodriguez-Lopez / The Mars Volta
Colaboração e revisão:
  • Pablo Mateus
892 exibições
    • ½ Tom
    • A
    • Bb
    • B
    • C
    • Db
    • D
    • Eb
    • E
    • F
    • F#
    • G
    • Ab
  • Adicionar à lista

    0 comentários

    Ver todos os comentários

    Conseguiu tocar?

    0 Tocaram 0 Ainda não

    Grave um vídeo tocando Since We've Been Wrong e nos envie!

    00:00 / 00:00
    Outros vídeos desta música
    Repetir Qualidade Automático
    Outros vídeos desta música
    00:00 / 00:00
    Automático

    Cifra Club Pro

    Aproveite o Cifra Club com benefícios exclusivos e sem anúncios
    Cifra Club Pro
    Aproveite o Cifra Club com benefícios exclusivos e sem anúncios
    OK