Cifra Club

Your Love

The Outfield

Cifra: Principal
exibições 228.626
Tom: E
Introdução: E5  C#5  B5


Primeira Parte: 

E5               C#5           B5
   Josie's on a vacation far away
                             E5
Come around and talk it over
          C#5                B5
So many things that I wanna say
                                      A5
You know I like my girls a little bit older

             C#5              B5
I just wanna use your love tonight
C#5                A5               B5
    I don't wanna lose your love tonight


Segunda Parte:

E5                    C#5                 B5
   I ain't got many friends left to talk to
                                   E5
Nowhere to run when I'm in trouble
              C#5             B5
You know I'd do anything for you
                                 A9
Stay the night but keep it undercover

             C#m              B11
I just wanna use your love tonight
C#m                A9               B11
    I don't wanna lose your love tonight

   A9   C#m         B11
E|-0----------0-----------0-----------0-----|
B|-0--------5----5------4----4-----------4--|
G|-2------6-----------4--------4----4-------|
D|-2----6-----------4-------------4---------|
A|-0----4-----------2-----------------------|
E|------------------------------------------|
   C#m  A9          B11
E|-0----------0-----------0-----------0-----|
B|-5--------0----0------4----4-----------4--|
G|-6------2-----------4--------4----4-------|
D|-6----2-----------4-------------4---------|
A|-4----0-----------2-----------------------|
E|------------------------------------------|


Interlúdio:  G9  A9

E|------------------------------------------|
B|-------0----------0-----------------------|
G|-----2----------2-------------------------|
D|---0----------2---------------------------|
A|------------0-----------------------------|
E|-3----------------------------------------|

(Riff do Interlúdio)

E|-----------------------------------------------------|
B|-3~---5--7--5------------------5--7--8--7--5--7\-----|
G|---------------7--6-----6/7~-------------------------|
D|---------------------7-------------------------------|
A|-----------------------------------------------------|
E|-----------------------------------------------------|

G9                 A9                G9
   Try to stop my hands from shaking
                     A9               G9
But something in my mind's not making    sense
                        A9               G9
It's been a while since    we were all alone
                  A9
I can't hide the way I'm feeling


Terceira Parte:

E5
   As you're leaving
  C#5                       B5
Please would you close the door?
                                 E5
And don't forget what I told you
                    C#5                         B5
Just 'cause you're right, that don't mean I'm wrong
                          A5
Another shoulder to cry upon

             C#5              B5
I just wanna use your love tonight
C#5                A5               B5
    I don't wanna lose your love tonight


Final:

C#m              A9               B11
    I just wanna use your love tonight
C#m                A9               B11
    I don't wanna lose your love tonight

C#m              A9               B11
    I just wanna use your love tonight
C#m                A9               B11
    I don't wanna lose your love tonight

(Riff do Final)

E|--------7-7----------7-7----------7-7----------7-7---|
B|-5h7--5-----5-5h7--5-----5-5h7--5-----5-5h7--5-----5-|
G|-----------------------------------------------------|
D|-----------------------------------------------------|
A|-----------------------------------------------------|
E|-----------------------------------------------------|

(variação)

E|-----7-----7-----7-----7-----7-----------------------|
B|-5h7---5h7---5h7---5h7---5h7-------------------------|
G|-----------------------------------------------------|
D|-----------------------------------------------------|
A|-----------------------------------------------------|
E|-----------------------------------------------------|

(Lose your love)

(Lose your love)

(Lose your love)
Acordes para:
    Composição: John SpinksColaboração e revisão:
    • Vinícius Dias

    0 comentários

      mostrar mais comentários

      Conseguiu tocar?

      34tocaram1ainda não

      Grave um vídeo tocando Your Love e mande pra gente!

      00:00 / 00:00
      outros vídeos desta música
      repetirqualidadeautomática
      Outro vídeos desta música
        00:00 / 00:00
        automática
        Capítulos
        • Tocando a música
        • Dicas Iniciais / Equipamentos
        • Acordes da Introdução
        • Introdução
        • Ritmo da Introdução
        • Acordes da Primeira Parte
        • Tocando a Primeira Parte
        • Ritmo da Primeira Parte
        • Acordes da Segunda Parte
        • Tocando a Segunda Parte
        • Segunda Parte - Arpejo
        • Tocando o Interlúdio
        • Segunda Parte - Arpejo
        • Segunda Parte - Arpejo (variação)
        • Riff do Interlúdio
        • Tocando o Final
        • Riff Final
        • Riff Final (variação)
        • Encerramento
        • Ficha Técnica
        OK