Notificações Amigos pendentes

      The Pretty Reckless

      Going To Hell

      5.945 exibições
      Tom: E Afinação: Db Gb Cb E G Db
      Intro 2x
      
      |---------------------------------------|
      |---------------------------------------|
      |---------------------------------------|
      |--0x---------5----0x-------------------|
      |--0x-2p--5h6h7-7--0x-2p--5h7p5--3v~-5v~|
      |--0x--------------0x-------------------|
         (2x)           (2x)
      
      |---------------------------------------|
      |---------------------------------------|
      |---------------------------------------|
      |--0x---------5----0x------------5-/-7--|
      |--0x-2p--5h6h7-7--0x-2p--5h7p5--3-/-5--|
      |--0x--------------0x-------------------|
         (2x)           (2x)
      
      
      Riff 2
                              3x
      
      |-----------------------|-----------------------------|
      |-----------------------|-----------------------------|
      |-----------------------|-----------------------------|
      |--6x-6--6x-6--6x-6--88-|-6x-6--6x-6--6x-6---11/12----|
      |--7x-7--7x-7--7x-7--99-|-7x-7--7x-7--7x-7---12/13----|
      |--5x-5--5x-5--5x-5--55-|-5x-5--5x-5--5x-5---10/11----|
        (2x)  (2x)  (2x)       (2x)  (2x)  (2x)
      
      |-------------------------------|
      |-------------------------------|
      |-------------------------------|
      |--(12)--2~--5~-----------------|
      |--(13)--2~--5~-----------------|
      |--(11)--2~--5~-----------------|
      
      
      
      Chorus 2x
      
      |---------------------------------------|
      |---------------------------------------|
      |---------------------------------------|
      |--0x---------5----0x-------------------|
      |--0x-2p--5h6h7-7--0x-2p--5h7p5--3v~-5v~|
      |--0x--------------0x-------------------|
        (2x)            (2x)
      
      |---------------------------------------|
      |---------------------------------------|
      |---------------------------------------|
      |--0x---------5-----55~~----------------|
      |--0x-2p--5h6h7-7---77~~----------------|
      |--0x---------------55~~----------------|
        (2x)
      
      
      
      h - hammer on
      / - slide
      ~ - hold
      p - pull off
      x - mute note

      Comentários 5

      140 .
      • higuinn.silva higuinn.silva: Em 31/05/2014 00:04

        Video aula galera pfvor

      • Jessika Jessika: Em 02/12/2013 10:57

        Video aula pfv!!

      • igorteixa igorteixa: Em 01/12/2013 15:22

        como se afina a guitarra desse jeito?

        • misona misona: Em 09/12/2013 12:25

          Comentário removido

        • misona misona: Em 09/12/2013 12:26

          dropa a guitarra em D e afina o resto com ela, dps só baixa meio tom am cada corda

      140 cancelar

      conseguiu tocar?

      covers

      Grave um vídeo tocando Going To Hell e mande pra gente!

      Ex.: http://www.youtube.com/watch?v=0IvSvIwGdwk
      ver covers de outras músicas »
      0:00 / 0:00

      Capítulos

        1 versão de violão dificuldade exibições contribuição e correção
        1 versão de guitarra dificuldade exibições contribuição e correção
        1 versão de cavaco dificuldade exibições contribuição e correção
        1 versão de teclado dificuldade exibições contribuição e correção
        1 versão de Guitar Proformatodownloadscontribuição
        play/pausefechar subir/descer velocidade
        6ª corda E5ª corda A4ª corda D3ª corda G2ª corda B1ª corda E
          acordes
          publicidade
          fechar
          ok