Cifra Club

Aprenda

Sweet Things

The Pretty Reckless

Cifra: Principal (violão e guitarra)
tom: F# (forma dos acordes no tom de G) Afinação: Eb Ab Db Gb Bb Eb
Intro:                                                      1.
E|-------------------|----------------------------------|--------------------------||
B|-------------------|----------------------------------|--------------------------||
G|-------------------|----------------------------------|------------------------.-||
D|-0-h-2---2--2---2--|-0-h-2---2--2---2---0-h-2--2--2---|--2---0-h-2--2--3---3---.-||
A|-0-h-2---2--2---2--|-0-h-2---2--2---2---0-h-2--2--2---|--2---0-h-2--2--2---2-----||
E|-0-------0--0---0--|-0-------0--0---0---0------0--0---|--0---0-h-2--0--0---0-----||
 
2.
E|-------------||------------|
B|-------------||------------|
G|------------.||------------|
D|--2---------.||------------|
A|--0--5--3----||---5--4--3--|
E|-----3--1----||---3--2--1--|

Refrão:                                                @
E|--------------------|--------------------------------|---3---3--3-3-3---2---2--2-2-2----|
B|--------4---4-4-----|--4--4---4---4--4----4---4--4---|---4---4--4-4-4---4---4--4-4-4----|
G|--------0---0-0---.-|--4--4---4---4--4----4---4--4---|---4---4--4-4-4---4---4--4-4-4--.-|
D|--------2---2-2---.-|--4--4---4---4--4----4---4--4---|---4---4--4-4-4---4---4--4-4-4--.-|
A|--2--2--------------|--2--2---2---2--2----2---2--2---|---2---2--2-2-2---2---2--2-2-2----|
E|--0--0--------------|--------------------------------|----------------------------------|

Volte ao Refrão a partir do @

E|---------------|---------------|
B|---------------|---------------|
G|---------------|---------------|
D|---------------|---------------|
A|--2--0---------|---------------|
E|--------3--2---|---------------|

(Volta ao Verso)

Ponte:

E|---------------------------------------------------------------------------|
B|---4--4-4---4-4--4-4--4-4--4----------------4--4-4--4-4--4-4--4-4--4-4-----|
G|---4--4-4---4-4--4-4--4-4--4---5-5--5-5--5--4--4-4--4-4--4-4--4-4--4-4-----|
D|---4--4-4---4-4--4-4--4-4--4---5-5--5-5--5--4--4-4--4-4--4-4--4-4--4-4-----|
A|---2--2-2---2-2--2-2--2-2--2---3-3--3-3--3--2--2-2--2-2--2-2--2-2--2-2-----|
E|---------------------------------------------------------------------------|
 
 1.                  2. 
E|------------------|---------------------------------------|
B|------------------|---4-4--4-4--4-4--4-4--4---------------|
G|---7--7--7-7-7-7--|---4-4--4-4--4-4--4-4--4---------------|
D|---7--7--7-7-7-7--|---4-4--4-4--4-4--4-4--4---------------|
A|---5--5--5-5-5-5--|---2-2--2-2--2-2--2-2--2---------------|
E|------------------|---------------------------------------|

(Intro)
(Refrão)
(Intro)
(Refrão)

E|---------------------------------| 
B|------------------------------4--|
G|------------------------------0--|
D|------------------------------2--|
A|---2--0-----------------------2--|
E|---------3--2-----------------0--|
************************************
Compositor não encontrado.
Colaboração e revisão:
  • Lucas Israel
1.788 exibições
    • ½ Tom
    • A
    • Bb
    • B
    • C
    • Db
    • D
    • Eb
    • E
    • F
    • F#
    • G
    • Ab
  • Adicionar à lista

    0 comentários

    Ver todos os comentários

    Conseguiu tocar?

    0 Tocaram 0 Ainda não

    Grave um vídeo tocando Sweet Things e nos envie!

    00:00 / 00:00
    Outros vídeos desta música
    Repetir Qualidade Automático
    Outros vídeos desta música
    00:00 / 00:00
    Automático

    Cifra Club Pro

    Aproveite o Cifra Club com benefícios exclusivos e sem anúncios
    Cifra Club Pro
    Aproveite o Cifra Club com benefícios exclusivos e sem anúncios
    OK