Cifra Club

Aprenda

Take Me Down

The Pretty Reckless

Cifra: Principal (violão e guitarra)
tom: C
[Intro] E5  G5  D5  E5  (C5  D5)
        E5  G5  D5  E5

 E5                          G5
Waitin' at these crossroads forever and a day
     D5            E5
On a guy to buy my soul
  E5
I spend all night and day
         G5
How much harder can I play?
           D5               E5             G5  D5  E5
You know I gave my life to rock n' roll, n' roll

E5
Mama begged me please
         G5
Yes, she got down on her knees
     D5                                E5
Said "you'll burn in that Mississippi sun"
    E5
But I'm the only one that's standing here
   G5
So mama don't you have no fear
        D5                        E5
I'll be the last 'til I've already won
       G5  D5  E5
Here I go

E5       D5
Take me down
A5       E5
Take me down
E5       D5
Take me down
         A5        E5
Won't you take me down

( E5  G5  D5  E5 )
( E5  G5  D5  E5 )

  E5                          G5
Standin' at the crossroads a dried up pen in hand
    D5                     E5
The conversation went like this

E5
Tell me your desire
       G5
Why you pulled me from the fire
     D5                    E5
And sealed the deal with a kiss
      E5
Cause I wanna raise the dead
       G5
Find a note that I can shred
      D5                E5
On my walls I scrawl my gods
                E5
Don't care what happens when I die
    G5               D5                E5   E5    E5
As long as I'm alive all I wanna do is rock, rock, rock

E5       D5
Take me down
A5       E5
Take me down
E5       D5
Take me down
         A5        E5
Won't you take me down

E|-------------------------------|
B|-------------------------------|
G|---------------12~-------------|
D|--------12-14-------14--12h14~-|
A|-12h14-------------------------|
E|-------------------------------|

E|---------------------------------------------------------|
B|-------------------------------------15------------------|
G|---14b15r14p12-14~--14b15r14p12-14~-----14b15r14p12------|
D|----------------------------------------------------14~--|
A|---------------------------------------------------------|
E|---------------------------------------------------------|

E|-------------------------------|
B|-------------------------------|
G|------------12b----------------|
D|--------12--12b--12--14~-------|
A|-12h14-------------------------|
E|-------------------------------|

E|---------------------------------------------------------|
B|-------------------------------------15------------------|
G|---14b15r14p12-14~--14b15r14p12-14~-----14b15r14p12------|
D|----------------------------------------------------14~--|
A|---------------------------------------------------------|
E|---------------------------------------------------------|

    E5                   D5                   A5                   E5
Oh, sign with the devil, sign with the devil, sign with the devil
    E5                   D5                   A5                   E5
Oh! sign with the devil, sign with the devil, sign with the devil
    E5                   D5                   A5                   E5
Oh! sign with the devil, sign with the devil, sign with the devil
    E5                   D5                   A5                   E5
Oh! sign with the devil, sign with the devil, sign with the devil
    E5
Oh!

E5       D5
Take me down
A5       E5
Take me down
E5       D5
Take me down
         A5        E5
Won't you take me down

E5       D5
Take me down
(Sign with the devil, sign with the devil, sign with the devil)

A5       E5
Take me down
(Sign with the devil, sign with the devil, sign with the devil, oh)

E5       D5
Take me down
(Sign with the devil, sign with the devil, sign with the devil)

          A5        E5
Won't you take me down

Down

(I got a record deal!)
Compositor não encontrado.
Colaboração e revisão:
  • Luiz Barni
  • Mariana Tavares
  • roberto felipe
6.019 exibições
  • Simplificar cifra
    • ½ Tom
    • A
    • Bb
    • B
    • C
    • Db
    • D
    • Eb
    • E
    • F
    • F#
    • G
    • Ab
  • Adicionar à lista

    0 comentários

    Ver todos os comentários

    Conseguiu tocar?

    6 Tocaram 0 Ainda não

    Grave um vídeo tocando Take Me Down e nos envie!

    00:00 / 00:00
    Outros vídeos desta música
    Repetir Qualidade Automático
    Outros vídeos desta música
    00:00 / 00:00
    Automático

    Cifra Club Pro

    Aproveite o Cifra Club com benefícios exclusivos e sem anúncios
    Cifra Club Pro
    Aproveite o Cifra Club com benefícios exclusivos e sem anúncios
    OK