Cifra Club

Zombie

The Pretty Reckless

Cifra: Principal
exibições 64.949
Tom: G
Intro:

E|-----3-----------5----------------7-------------------7-------------------5|
B|-----0-----0-----0-----0---------5----5--7--8--------5------5--7--8------5-|
G|-----4---4-------4---4--------------------------------------------------5--|
D|-----5-----------5---------------------------------------------------------|
A|---------------------------------------------------------------------------|
E|---------------------------------------------------------------------------|


Refrão:

E|---3-----------------------------5---------------------------------------|
B|---0----------0------------------0--------------0------------------------|
G|---4------4----------------------4---------4-----------------------------|
D|---5-----------------------------5---------------------------------------|
A|-------------------------------------------------------------------------|
E|-------------------------------------------------------------------------|

    I'm not listening to you     I am wandering right through

E|-------7---------------------------7-------------------------------------|
B|------5-----5---7---8-------------5------5---7---8-----------------------|
G|-------------------------------------------------------------------------|
D|-------------------------------------------------------------------------|
A|-------------------------------------------------------------------------|
E|-------------------------------------------------------------------------|

     existence

E|---3-----------------------------5---------------------------------------|
B|---0----------0------------------0--------------0------------------------|
G|---4------4----------------------4---------4-----------------------------|
D|---5-----------------------------5---------------------------------------|
A|-------------------------------------------------------------------------|
E|-------------------------------------------------------------------------|

With no purpose and no drive       'cause in the end we're all

E|-------7---------------------------7-------------------------------------|
B|------5-----5---7---8-------------5------5---7---8-----------------------|
G|-------------------------------------------------------------------------|
D|-------------------------------------------------------------------------|
A|-------------------------------------------------------------------------|
E|-------------------------------------------------------------------------|

      alive                   ,    alive

E|---------------------------------------------------|
B|---------------------------------------------------|
G|--------00000--------------------------------------|
D|--------22222--------------------------------------|
A|--------22222--------------------------------------|
E|--------00000--------0-----2-----3-----------------|

                Two thousand years I've been awake

E|---------------------------------------------------|
B|---------------------------------------------------|
G|--------00000--------------------------------------|
D|--------22222--------------------------------------|
A|--------22222--------------------------------------|
E|--------00000--------0-----2-----3-----------------|

               Waiting for the day to shake

Em
To all of you who've wronged me
C
I am. I am a zombie
Am                          B
Again, again you want me to fall on my head
Em
I am, I am, I am a zombie
C
How low, how low, how low will you push me
Am                          B
To go to go to go, before I lie, lie down dead

E|---3-----------------------------5---------------------------------------|
B|---0----------0------------------0--------------0------------------------|
G|---4------4----------------------4---------4-----------------------------|
D|---5-----------------------------5---------------------------------------|
A|-------------------------------------------------------------------------|
E|-------------------------------------------------------------------------|

Blow the smoke right off the tube  Kiss my gentle burning bruise

E|-------7---------------------------7-------------------------------------|
B|------5-----5---7---8-------------5------5---7---8-----------------------|
G|-------------------------------------------------------------------------|
D|-------------------------------------------------------------------------|
A|-------------------------------------------------------------------------|
E|-------------------------------------------------------------------------|

I'm lost in time

Em
To all the people left behind
Am
you are walking dumb and blind, blind

E|---------------------------------------------------|
B|---------------------------------------------------|
G|--------00000--------------------------------------|
D|--------22222--------------------------------------|
A|--------22222--------------------------------------|
E|--------00000--------0-----2-----3-----------------|


And two thousand years I've been awake


E|---------------------------------------------------|
B|---------------------------------------------------|
G|--------00000--------------------------------------|
D|--------22222--------------------------------------|
A|--------22222--------------------------------------|
E|--------00000--------0-----2-----3-----------------|


Waiting for the day to shake

Em
Dear all of you who've wronged me
C
I am, I am a zombie
Am                          B
Again, again you want me to fall on my head

Em
I am, I am, I am a zombie
C
How low, how low, how low will you push me
Am                          B
To go to go to go, before I lie, lie down dead

Oh dead, Oh dead, Oh dead

( C  Am  Em  Em ) (4x)

Em
To all of you who've wronged me
C
I am. I am a zombie
Am                          B
Again, again you want me to fall on my head
Em
I am, I am, I am a zombie
C
How low, how low, how low will you push me
Am                          B
To go to go to go, before I lie, lie down dead
Acordes para:
    Colaboração e revisão:

    0 comentários

      mostrar mais comentários

      Conseguiu tocar?

      25tocaram1ainda não

      Grave um vídeo tocando Zombie e mande pra gente!

      00:00 / 00:00
      outros vídeos desta música
      repetirqualidadeautomática
      Outro vídeos desta música
        00:00 / 00:00
        automática
        OK