Cifra Club

The Man Who Can't Be Moved

The Script

Cifra: Principal (violão e guitarra)
tom: G
Intro (2x):
E|-----------------------|-------------------------|---------------------------|--------------------------|
B|-----------------------|-------------------------|---------------------------|--------------------------|
G|-----------------------|-------------------------|-----1----------3-----1----|-----1----------3------1--|
D|-------4-------4-------|------------4---------4--|---------4-------4-----4---|---------4-------4------4-|
A|--1------1-----------2-|-------3---------3------3|---2--------2--------------|--2---------2-------------|
E|----2------2----1------|--1---------1-------1----|---------------------------|--------------------------|

     G                         D
Going back to the corner where I first saw you,
       Am                              C
Gonna camp in my sleeping bag I'm not gonna move,
         G                        D
Got some words on cardboard got your picture in my hand,
      Am                               C
Saying if you see this girl can you tell her where I am,
         G                    D
Some try to hand me money they don't understand,
         Am                C
I'm not... broke I'm just a broken hearted man,
        G                    D
I know it makes no sense, but what else can I do,
   Am                        C
How can I move on when I've been in love with you...

     G                                     D
'Cuz if one day you wake up and find that your missing me,
         Am                               C
And your heart starts to wonder where on this earth I can be,
        G                                     D
Thinking maybe you'd come back here to the place that we'd meet,
         Am                               C
And you'd see me waiting for you on the corner of the street.

   G            D
So I'm not moving...
  Am        C
I'm not moving.

 G                    D
Policeman says son you can't stay here,
       Am                             C
I said there's someone I'm waiting for if it's a day, a month, a year,
      G                      D
Gotta stand my ground even if it rains or snows,
     Am                            C
If she changes her mind this is the first place she will go.

          G                             D
'Cuz if one day you wake up and find that your missing me,
         Am                             C
And your heart starts to wonder where on this earth I can be,
            G                        D
Thinking maybe you'd come back here to the place that we'd meet,
          Am                     C
And you'd see me waiting for you on the corner of the street.

  G            D
So I'm not moving...
 Am         C
I'm not moving.

 Em             C
People talk about the guy
           D
Was waiting on a girl...
  Am
Oohoohwoo

  Em             C
There no hole in his shoes
              D
But a big hole in his world...
  Am
Hmmmm

      Em                 C
Maybe I'll get famous as man who can't be moved,
        D                  C
And maybe you won't mean to but you'll see me on the news,
        D
And you'll come running to the corner...
        C
'Cause you'll know it's just for you
      
I'm the man who can't be moved
   D
I'm the man who can't be moved...

        G                         D
'Cuz if one day you wake up and find that your missing me,
         Am                        C
And your heart starts to wonder where on this earth I can be,
       G                           D
Thinking maybe you'd come back here to the place that we'd meet,
          Am                       C
And you'd see me waiting for you on the corner of the street.

  G        D
So I'm not moving...
 Am         C
I'm not moving.

Repete Intro:

G|-----------------------|-------------------------|-----1----------3-----1----|-----1----------3------1--|
D|-------4-------4-------|------------4---------4--|---------4-------4-----4---|---------4-------4------4-|
A|--1------1-----------2-|-------3---------3------3|---2--------2--------------|--2---------2-------------|
E|----2------2----1------|--1---------1-------1----|---------------------------|--------------------------|

Going back to the corner where I first saw you,
Gonna camp in my sleeping bag not I'm not gonna move.
00:00 / 00:00
Outros vídeos desta música
Repetir
Outros vídeos desta música
Composição de Andrew Frampton / Steve Kipner
72.252 exibições
  • Simplificar cifra
    • ½ Tom
    • A
    • Bb
    • B
    • C
    • Db
    • D
    • Eb
    • E
    • F
    • F#
    • G
    • Ab
  • Adicionar à lista

    0 comentários

    Ver todos os comentários

    Conseguiu tocar?

    16 Tocaram 2 Ainda não

    Grave um vídeo tocando The Man Who Can't Be Moved e nos envie!

    00:00 / 00:00

    Cifra Club Pro

    Aproveite o Cifra Club com benefícios exclusivos e sem anúncios
    Cifra Club Pro
    Aproveite o Cifra Club com benefícios exclusivos e sem anúncios
    OK