Cifra Club

Foot Tapper

The Shadows

Cifra: Principal (violão e guitarra)
tom: Db
Tabbed By Daniel Bloomfield

x - palm muted

------------------------------------------------------------------------------|
---------5x--5x---------------------------------------------------------------|
-5x--5x----------5x--4x----------5x--5x------------------5x--5x---------------|
-------------------------7x--7x----------7x--5x--3x--3x----------7x--5x--5x---|
------------------------------------------------------------------------------|
------------------------------------------------------------------------------|

------------------------------------------------------------------------------|
---------5x--5x---------------------------------------------------------------|
-5x--5x----------5x--4x----------5x--5x------------------5x--5x---------------|
-------------------------7x--7x----------7x--5x--3x--3x----------7x--5x--5x---|
------------------------------------------------------------------------------|
------------------------------------------------------------------------------|

---------------------------------3x--5x--3x-----------------------------------|
---------------------3x--4x--5x----------------------5x--3x--3x---------------|
-----5x--7x--5x--5x------------------------------4x------------------3x--4x---|
-5x------------------------------------------5x------------------5x-----------|
------------------------------------------------------------------------------|
------------------------------------------------------------------------------|

-----5x--3x----------------------------------3x--5x--3x-----------------------|
-3x------------------3x----------3x--4x--5x--------------6x--5x---------------|
-----------------5x------5x--5x----------------------------------7x--5x--4x---|
-------------5x---------------------------------------------------------------|
------------------------------------------------------------------------------|
------------------------------------------------------------------------------|

------------------------------------------------------------------------------|
-----------------5x--5x-------------------------------------------------------|
-----4x--5x--5x----------5x--4x----------5x--5x------------------5x--5x-------|
-7x------------------------------7x--7x----------7x--5x------------------7x---|
---------------------------------------------------------8x--8x---------------|
------------------------------------------------------------------------------|

-----------------------------------------3x--5x--3x---------------------------|
-----------------------------3x--4x--5x----------------------5x--3x--3x-------|
-------------5x--7x--5x--5x------------------------------4x-------------------|
-5x--5x--5x------------------------------------------5x------------------5x---|
------------------------------------------------------------------------------|
------------------------------------------------------------------------------|

-------------5x--3x----------------------------------3x--5x--3x---------------|
---------3x------------------3x----------3x--4x--5x--------------6x--5x-------|
-3x--4x------------------5x------5x--5x----------------------------------7x---|
---------------------5x-------------------------------------------------------|
------------------------------------------------------------------------------|
------------------------------------------------------------------------------|

------------------------------------------------------------------------------|
-------------------------5x--5x-----------------------------------------------|
-5x--4x------4x--5x--5x----------5x--4x----------5x--5x-----------------------|
---------7x------------------------------7x--7x----------7x--5x--5x------5x---|
---------------------------------------------------------------------7x-------|
------------------------------------------------------------------------------|

----------|-------------------------------------------------------------------|
----------|-------------------------------------------------------------------|
----------|----------------1/2--0---------------------------------------------|
----------|-9--7--5--3--2--2/3--2--9--7--5--3--2--------2-----------2---------|
-7x-------|10--8--7--5--3---------10--8--7--5--3--3--5--------3--5--------3---|
-----8x-8x|------------------------------------------------5-----------1------|

-------------------------------------------------------|----------------------|
-------------------------------------------------------|--------3x-------3x---|
-------------------------------------------------------|-----5x----5x-5x------|
----2--------------------------------------------5---5-|--5x------------------|
-5-----5--5--5--5--5--5-----2--3--5--4--5--4--5--------|----------------------|
-------------------------5-----------------------------|----------------------|

-------3x-5x-3x----------------------------5x-3x-------------------------3x---|
-4x-5x----------------5x-3x-3x----------3x-------------3x-------3x-4x-5x------|
-------------------4x-------------3x-4x-------------5x----5x-5x---------------|
----------------5x-------------5x----------------5x---------------------------|
------------------------------------------------------------------------------|
------------------------------------------------------------------------------|

-5x-3x------------------------------------------------------------------------|
-------6x-5x----------------------5x-5x---------------------------------------|
-------------7x-5x-4x----4x-5x-5x-------5x-4x-------5x-5x---------------------|
----------------------7x----------------------7x-7x-------7x-5x-5x----5x------|
-------------------------------------------------------------------7x----7x---|
------------------------------------------------------------------------------|

------------------------------------------------------------------------------|
------------------------------------------------------------------------------|
------------------------------------------------------------------------------|
-----------------------------2-----------2--3--2--2--2--3--5--3--3--3--2------|
--------------2--3--3--3--5-----5--5--5-----------------------------------5---|
-8x-8x--3--5------------------------------------------------------------------|

------------------------------------------------------------------------------|
------------------------------------------------------------------------------|
------------------------------------------------------------------------------|
-2--2--2----------------------------------------------------------------------|
----------5--3--5--5--------2--3--3--------3--3-----------3--3--3-------------|
----------------------3--5-----------3--3--------3--3--3-----------3--3--3----|

------------------------------------------------------------------------------|
------------------------------------------------------------------------------|
--------------------1/2--0----------------------------------------------------|
-----9--7--5--3--2--2/3--1--9--7--5--3--2--------2-----------2-----------2----|
-3--10--8--7--5--3---------10--8--7--5--3--3--5--------3--5--------3--5-------|
----------------------------------------------------5-----------1-------------|

------------------------------------------------------------------------------|
---------------------------------------------------------3x----------3x--4x---|
-----------------------------------------------------5x------5x--5x-----------|
-------------------------------------------5--5--5x---------------------------|
-5--5--5--5--5--5-----2--3--5--4--5--4--5-------------------------------------|
-------------------5----------------------------------------------------------|

-----3x--5x--3x--------------------------------------5x--3x-------------------|
-5x----------------------5x--3x--3x--------------3x------------------3x-------|
---------------------4x------------------3x--4x------------------5x------5x---|
-----------------5x------------------5x----------------------5x---------------|
------------------------------------------------------------------------------|
------------------------------------------------------------------------------|

-----------------3x--5x--3x---------------------------------------------------|
-----3x--4x--5x--------------6x--5x------------------------------5x--5x-------|
-5x----------------------------------7x--5x--4x------4x--5x--5x----------5x---|
-------------------------------------------------7x---------------------------|
------------------------------------------------------------------------------|
------------------------------------------------------------------------------|

------------------------------------------------------------------------------|
-----------------------------------------------------------------5x--5x-------|
-4x----------5x--5x------------------5x--5x--------------5x--5x----------5x---|
-----7x--7x----------7x--5x------------------7x--5x--5x-----------------------|
-----------------------------7x--7x-------------------------------------------|
------------------------------------------------------------------------------|

------------------------------------------------------------------------------|
------------------------------------------------------------------------------|
-4x----------5x--5x-----------------------------------------------------------|
-----7x--7x----------7x--5x--5x------5x------2x--2x--2x--2x--2---2------------|
---------------------------------7x------7x--3x--3x--3x--3x--3---3------------|
------------------------------------------------------------------------------|
00:00 / 00:00
Outros vídeos desta música
Repetir
Outros vídeos desta música
Composição de Bruce Welch / Hank Marvin
1.084 exibições
    • ½ Tom
    • A
    • Bb
    • B
    • C
    • Db
    • D
    • Eb
    • E
    • F
    • F#
    • G
    • Ab
  • Adicionar à lista

    0 comentários

    Ver todos os comentários

    Conseguiu tocar?

    0 Tocaram 0 Ainda não

    Grave um vídeo tocando Foot Tapper e nos envie!

    00:00 / 00:00

    Cifra Club Pro

    Aproveite o Cifra Club com benefícios exclusivos e sem anúncios
    Cifra Club Pro
    Aproveite o Cifra Club com benefícios exclusivos e sem anúncios
    OK