Cifra Club

Mustang

The Shadows

Cifra: Principal (violão e guitarra)
tom: C
Introd. (baixo, depois que entra a seg. parte)
e|--------------------------------------------------------------------------------
B|--------------------------------------------------------------------------------
G|--------------------------------------------------------------------------------
D|--------------------------------------------------------------------------------
A|--------------------------------------------------------------------------------   (4x)
E|---2------2-0---0-0--2--2--2--5--4----------------------------------------------

e|--------------------------------------------------------------------------------
B|--------------------------------------------------------------------------------
G|--------------------------------------------------------------------------------
D|---4-----4-2---2-2--4--4--4--77--55-----44-----4-2---2-2--4--4--4--77--55------- 
A|--------------------------------------------------------------------------------
E|--------------------------------------------------------------------------------

e|--------------------------------------------------------------------------------
B|--------------------------------------------------------------------------------
G|--------------------------------------------------------------------------------
D|---44-----4-2---2-2--4--4--4--77-55---44-----4-2---2-2--4--4--4-----------------
A|--------------------------------------------------------------------------------
E|---------------------------------------------------------------0-555555---------

e|--------------------------------------------------------------------------------
B|--------------------------------------------------------------------------------
G|----------------------------7777--5-7-------------------------------------------
D|-----7---5---7--5--7--5---------------7--4--5-5555-7--5-------------------------
A|--------------------------------------------------------------7--3---5----------
E|--------------------------------------------------------------------------------

e|--------------------------------------------------------------------------------
B|--------------------------------------------------------------------------------
G|----------------------------7777--5-7-------------------------------------------
D|-----7---5---7--5--7--5---------------7--4--5-5555-7--5-------------------------
A|--------------------------------------------------------------7--3---5----------
E|--------------------------------------------------------------------------------

e|--------------------------------------------------------------------------------
B|----------------77777-5-77-5----------------------------------------------------
G|---77777-5-7-------------------5-77777-5-77-5-----------------------------------
D|--------------------------------------------------------5---7-------------------
A|--------------------------------------------------------------------------------
E|--------------------------------------------------------------------------------

e|--------------------------------------------------------------------------------
B|--------------------------------------------------------------------------------
G|---5-5-5-7-5--------------------------------------------------------------------
D|------------7-4--5-5-5-7-5------------------------------------------------------
A|---------------------------7--3---5-5-------5----5-5-------5--------------------
E|--------------------------------------7--7-----------7--7-----------------------

e|---------10-8-10---------10-8-5-1s3---------------------------------------------
B|---------------------------------------3----------------------------------------
G|--------------------------------------------------------------------------------
D|--------------------------------------------------------------------------------
A|--------------------------------------------------------------------------------
E|--------------------------------------------------------------------------------

e|---------10-8-10---------10-8-5-1s3---------------------------------------------
B|----------------------------------------5-5-0-----------------------------------
G|--------------------------------------------------------------------------------
D|--------------------------------------------------------------------------------
A|--------------------------------------------------------------------------------
E|--------------------------------------------------------------------------------

e|--------------------------------------------------------------------------------
B|--------------------------------------------------------------------------------
G|----------------------------7777--5-7-------------------------------------------
D|-----7---5---7--5--7--5---------------7--4--5-5555-7--5-------------------------
A|--------------------------------------------------------------7--3---5----------
E|--------------------------------------------------------------------------------

e|--------------------------------------------------------------------------------
B|--------------------------------------------------------------------------------
G|--------------------------------------------------------------------------------
D|-----555-7--5-------------------------------------------------------------------
A|-----------------7--3---5-------------------------------------------------------
E|--------------------------------------------------------------------------------

e|--------------------------------------------------------------------------------
B|--------------------------------------------------------------------------------
G|--------------------------------------------------------------------------------
D|--------------------------------------------------------------------------------
A|--------------------------------------------------------------------------------   (4x)
E|---2------2-0---0-0--2--2--2--5--4----------------------------------------------

e|--------------------------------------------------------------------------------
B|--------------------------------------------------------------------------------
G|--------------------------------------------------------------------------------
D|---4-----4-2---2-2--4--4--4--77--55-----44-----4-2---2-2--4--4--4--77--55------- 
A|--------------------------------------------------------------------------------
E|--------------------------------------------------------------------------------

e|--------------------------------------------------------------------------------
B|--------------------------------------------------------------------------------
G|--------------------------------------------------------------------------------
D|---44-----4-2---2-2--4--4--4--77-55---44-----4-2---2-2--4--4--4-----------------
A|--------------------------------------------------------------------------------
E|---------------------------------------------------------------0-555555---------

e|--------------------------------------------------------------------------------
B|--------------------------------------------------------------------------------
G|----------------------------7777--5-7-------------------------------------------
D|-----7---5---7--5--7--5---------------7--4--5-5555-7--5-------------------------
A|--------------------------------------------------------------7--3---5----------
E|--------------------------------------------------------------------------------

e|--------------------------------------------------------------------------------
B|--------------------------------------------------------------------------------
G|----------------------------7777--5-7-------------------------------------------
D|-----7---5---7--5--7--5---------------7--4--5-5555-7--5-------------------------
A|--------------------------------------------------------------7--3---5----------
E|--------------------------------------------------------------------------------

e|--------------------------------------------------------------------------------
B|----------------77777-5-77-5----------------------------------------------------
G|---77777-5-7-------------------5-77777-5-77-5-----------------------------------
D|--------------------------------------------------------5---7-------------------
A|--------------------------------------------------------------------------------
E|--------------------------------------------------------------------------------

e|--------------------------------------------------------------------------------
B|--------------------------------------------------------------------------------
G|---5-5-5-7-5--------------------------------------------------------------------
D|------------7-4--5-5-5-7-5------------------------------------------------------
A|---------------------------7--3---5-5-------5----5-5-------5--------------------
E|--------------------------------------7--7-----------7--7-----------------------

e|--------10-10-8-10---------10-8-5-1s3-------------------------------------------
B|---------------------------------------3---0-0-3---5-3-3-3----------------------
G|--------------------------------------------------------------------------------
D|--------------------------------------------------------------------------------
A|--------------------------------------------------------------------------------
E|--------------------------------------------------------------------------------

e|---------8-10---------10-8-5-1s3------------------------------------------------
B|-------------------------------------3----3---3-3-----3-------------------------
G|----------------------------------------1---1-------1---------------------------
D|--------------------------------------------------------------------------------
A|--------------------------------------------------------------------------------
E|--------------------------------------------------------------------------------

e|--------------------------------------------------------------------------------
B|--------------------------------------------------------------------------------
G|----------------------------7777--5-7-------------------------------------------
D|-----7---5---7--5--7--5---------------7--4--5-5555-7--5-------------------------
A|--------------------------------------------------------------7--3---5----------
E|--------------------------------------------------------------------------------

e|--------------------------------------------------------------------------------
B|----------------------------7777--5-7-------------------------------------------
G|-----7---5---7--5--7--5-----------------4--5-5555-7--5--------------------------
D|--------------------------------------------------------------7--3---5----------
A|--------------------------------------------------------------------------------
E|--------------------------------------------------------------------------------

e|--------------------------------------------------------------------------------
B|--------------------------------------------------------------------------------
G|--------------------------------------------------------------------------------
D|--------------------5-5555-7--5-------------------------------------------------
A|--------------------------------------------------------------3--3---5----------
E|--------------------------------------------------------------------------------
(repete isso até acabar a música)
00:00 / 00:00
Outros vídeos desta música
Repetir
Outros vídeos desta música
Compositor não encontrado.
Colaboração e revisão:
  • Anderson Chcrobut
1.331 exibições
    • ½ Tom
    • A
    • Bb
    • B
    • C
    • Db
    • D
    • Eb
    • E
    • F
    • F#
    • G
    • Ab
  • Adicionar à lista

    0 comentários

    Ver todos os comentários
    00:00 / 00:00

    Cifra Club Pro

    Aproveite o Cifra Club com benefícios exclusivos e sem anúncios
    Cifra Club Pro
    Aproveite o Cifra Club com benefícios exclusivos e sem anúncios
    OK