Cifra Club

Savage

The Shadows

Cifra: Principal (violão e guitarra)
tom: A

t= Dip with tremolo bar

-|---------------------------------------------------|------------------------|
-|---------------------------------------------------|------------------------|
-|-----------6---7--6--------------------------------|------------------------|
-|--------7-----------7----7-------------------------|------------------------|
-|------7---------------7-------7/10-7/8----5/8---5/7|------------------------|
-|---------------------------------------------------|------------------------|
 Verse                                                repeat x2

-|---------------------------------------------------|------------------------|
-|---------------------------------------------------|------------------------|
-|---------------------------------------------------|------------------------|
-|-----9--7--9--7-----7--9--7--9--7-----7--9--7------|------------------------|
-|-----------------8-----------------8------------7--|------------------------|
-|---------------------------------------------------|------------------------|
 Bridge

-|-----------------------------------------------------|----------------------|
-|-----------------------------------------------------|----------------------|
-|-----------------------------------------------------|----------------------|
-|-----------------------------------------------------|----------------------|
-|-----7--5--7--5-----5--7--5--7--5-----5--7--5--------|----------------------|
-|-----------------7-----------------7-----------7--0v-|----------------------|


-|-----7--5--7--5-----5--7--5--7--5-----5--7--5----------|--------------------|
-|-----------------6-----------------6-----------5---12^-|--------------------|
-|---------------------------------------------------12^-|--------------------|
-|-------------------------------------------------------|--------------------|
-|-------------------------------------------------------|--------------------|
-|-------------------------------------------------------|--------------------|
                                                      this sounds cool!

-|--------------------------------------------------|-------------------------|
-|-----5--3--5--3-----3--5--3--5--3------3--5--3----|-------------------------|
-|-----------------4------------------4-----------4-|-------------------------|
-|--------------------------------------------------|-------------------------|
-|--------------------------------------------------|-------------------------|
-|--------------------------------------------------|-------------------------|


-|----------------------------------------------------|-----|-----------------|
-|-10---10-10--10----12--12--12b--10-------10---------|0--0-|-----------------|
-|-12---12-12--12---------------------12-------12---9-|9--9-|-----------------|
-|----------------------------------------------------|12-12|-----------------|
-|----------------------------------------------------|-----|-----------------|
-|----------------------------------------------------|-----|-----------------|
 Solo                                                    kind of suffle

-|----------6--10-------10-10---9---------------------------------------------|
-|-------6------------------------10------------------------------------------|
-|----7-----------/10----------------9-----7h9p7--6----6-7-9---6-7-9---6-7-9--|
-|-8--------------------------------------------------------------------------|
-|----------------------------------------------------------------------------|
-|----------------------------------------------------------------------------|


-|---------------------------5---------------------------------6----6---------|
-|--------------------5--8b-----7b--5--------------------6---6---6------------|
-|-7--6------5--7/8-------------7b--5--------------7---7---7------------------|
-|------7------------------------------7-----8---8---8------------------------|
-|---------------------------------------------8------------------------------|
-|----------------------------------------------------------------------------|


-|-8/10---8--6-5----|---------------------------------------------------------|
-|------------------|---------------------------------------------------------|
-|---------------6--|---------------------------------------------------------|
-|-----------------7|---------------------------------------------------------|
-|------------------|---------------------------------------------------------|
-|------------------|---------------------------------------------------------|
                     Then back to Bridge and then verse x2

-|-------------------13--10/13--10/12--------------------|--------------------|
-|-------------------------------------------------------|--------------------|
-|--10--7/10--7/9----------------------------------------|--------------------|
-|-----------------------------------------8-8--7--8-8--7|--------------------|
-|-----------------------------------------8-8--7--8-8--7|--------------------|
-|-----------------------------------------6-6--5--6-6--5|--------------------|
 Ending                                                  and let the echo do
00:00 / 00:00
Outros vídeos desta música
Repetir
Outros vídeos desta música
Compositor não encontrado.
1.316 exibições
    • ½ Tom
    • A
    • Bb
    • B
    • C
    • Db
    • D
    • Eb
    • E
    • F
    • F#
    • G
    • Ab
  • Adicionar à lista

    0 comentários

    Ver todos os comentários
    00:00 / 00:00

    Cifra Club Pro

    Aproveite o Cifra Club com benefícios exclusivos e sem anúncios
    Cifra Club Pro
    Aproveite o Cifra Club com benefícios exclusivos e sem anúncios
    OK