Cifra Club

Aprenda

Is This It

The Strokes

Tab de baixo: Versão 4
No começo é so a guitarra...

Depois do Refrão Começa!...
"Said they'd give you anything you ever wanted..."
G|-------------9-10-12\-|---------------7-9\-|-----7---7-9-10-12\-|-----7-------12-14-15\-|
D|-----7----10----------|-----7---7--10------|-8-8---8------------|-8-8---8-/12-----------|
A|-8-8---8--------------|-8-8---8------------|--------------------|-----------------------|   (x2)
E|----------------------|--------------------|--------------------|-----------------------|

"Dear can't you see? It's them it's not me..."
G|--------------------------------------------------------------------------------|
D|--------------------------------------------------------------------------------|
A|------------------------8-8--8-8--8-8--8-8--------------------8-8--8-8--8-8--8-8|
E|8-8--8-8--8-8--8-8--8-8--------------------8-8--8-8--8-8--8-8-------------------|

"Is this it?.."

G|----------------------|
D|-----------8-7-10-----| (x2)
A|8~~~-8-8-8------------|
E|------------------8-8-|

"Can't you see I'm trying, I don't even like it..."
G|-------------9-10-12\-|---------------7-9\-|-----7---7-9-10-12\-|-----7-------12-14-15\-|-------|
D|-----7----10----------|-----7---7--10------|-8-8---8------------|-8-8---8-/12-----------|888888~|
A|-8-8---8--------------|-8-8---8------------|--------------------|-----------------------|-------| 
E|----------------------|--------------------|--------------------|-----------------------|-------|

Letra:

Can't you see I'm trying, I don't even like it
I'd just lied to get to your apartment
Now I'm staying there just for a while
I can't think 'cause I'm just way to tired

Refrão

Is this it?
Is this it?
Is this.. it

Said they'd give you anything you ever wanted
When they lied I knew
We would just stay both children trying hard
Not to realize I was sitting right behind her

Bridge:

Dear, can't you see
It's them it's not me
We're not enemies
We just disagree
If I was like them
All pissed in this bar
He changes his mind
Says I went too far
We all disagree
I think we should disagree, yeah..

Refrão

Can't you see I'm trying, I don't even like it
I'd just lied to get to your apartment
Now I'm staying there just for a while
I can't think 'cause I'm just way to tired...
Composição de Julian Casablancas
Colaboração e revisão:
  • João Vilela
189 exibições

0 comentários

Ver todos os comentários

Conseguiu tocar?

1 Tocaram 0 Ainda não

Grave um vídeo tocando Is This It e nos envie!

00:00 / 00:00
Outros vídeos desta música
Repetir Qualidade Automático
Outros vídeos desta música
00:00 / 00:00
Automático

Cifra Club Pro

Aproveite o Cifra Club com benefícios exclusivos e sem anúncios
Cifra Club Pro
Aproveite o Cifra Club com benefícios exclusivos e sem anúncios
OK