Cifra Club

Aprenda

One Way Trigger

The Strokes

Cifra: Completa (violão e guitarra)
tom: G
One Way Trigger:
Main Riff (5x)
Bridge (3x)
Main Riff (2x)
Solo
Main Riff (4x)
Bridge (4x)
Main Riff (6x)

#1
E|-----------------------------------|
B|--------12---------------12--------|
G|-9-12-9----9-12-9-9-12-9---9-12-9--|
D|-----------------------------------|
A|-----------------------------------|
E|-----------------------------------|

#2
E|-------------------------------|
B|-------10-------------10-------|
G|-6-9-6----6-9-6-6-9-6----6-9-6-|
D|-------------------------------|
A|-------------------------------|
E|-------------------------------|

#3
E|-----------------------------------|
B|--------10---------------10--------|
G|-7-11-7----7-11-7-7-11-7----7-11-7-|
D|-----------------------------------|
A|-----------------------------------|
E|-----------------------------------|

#4
E|-----------------------------|
B|-------8-------------8-------|
G|-4-7-4---4-7-4-4-7-4---4-7-4-|
D|-----------------------------|
A|-----------------------------|
E|-----------------------------|

Bridge:

"You ask me to stay..."
E|-7-7-7-7-7-7-7-7--5-5-5-5--2-2-2-2--|
B|-8-8-8-8-8-8-8-8--5-5-5-5--2-2-2-2--|
G|-9-9-9-9-9-9-9-9--6-5-6-6--2-2-2-2--|
D|-9-9-9-9-9-9-9-9--7-7-7-7--4-4-4-4--| Repeat
A|------------------------------------|
E|------------------------------------|

Solo:

#1
E|------------------------------------------------|
B|-7-8-7-8-7-7-8-7-7-7-7--7-8-7-10-7-7-8-7-7-7-7--|
G|------------------------------------------------|
D|------------------------------------------------|
A|------------------------------------------------|
E|------------------------------------------------|

#2
E|------------------------------------------|
B|-5-7-5-7-5-5-7-5-5-5-5--3-5-3-5-3--5-7-8--|
G|------------------------------------------|
D|------------------------------------------|
A|------------------------------------------|
E|------------------------------------------|

#3
E|---------------------------------------------------------------------|
B|-14-15-14-15-14-15-14-15-14-14-14--15-17-15-17-15-15-17-15-15-15-15--|
G|---------------------------------------------------------------------|
D|---------------------------------------------------------------------|
A|---------------------------------------------------------------------|
E|---------------------------------------------------------------------|

#4
E|-------------------------------------------------------------------------|
B|-15-17-15-17-15-15-17-15-15-15-15--17-18-17-18-17--151515-171717-181818--|
G|-------------------------------------------------------------------------|
D|-------------------------------------------------------------------------|
A|-------------------------------------------------------------------------|
E|-------------------------------------------------------------------------|

End:

E|---------------------------|
B|-12-12-12-12-12-12-12-12---|
G|---------------------------|
D|---9--9--9--9--9--9--9--9--|
A|---------------------------|
E|---------------------------|
Composição de Albert Hammond Jr / Julian Casablancas
Colaboração e revisão:
  • Gabriel Ëbeřle
1.320 exibições
    • ½ Tom
    • A
    • Bb
    • B
    • C
    • Db
    • D
    • Eb
    • E
    • F
    • F#
    • G
    • Ab
  • Adicionar à lista

    0 comentários

    Ver todos os comentários

    Conseguiu tocar?

    0 Tocaram 0 Ainda não

    Grave um vídeo tocando One Way Trigger e nos envie!

    00:00 / 00:00
    Outros vídeos desta música
    Repetir Qualidade Automático
    Outros vídeos desta música
    00:00 / 00:00
    Automático

    Cifra Club Pro

    Aproveite o Cifra Club com benefícios exclusivos e sem anúncios
    Cifra Club Pro
    Aproveite o Cifra Club com benefícios exclusivos e sem anúncios
    OK