Cifra Club

Aprenda

One Way Trigger

The Strokes

Tab de baixo: Principal
     E      A       D       G
G|---------------------------------------------------------------------------|
D|---------------------------------------------------------------------------|
A|---7--------------5--------------------------------------------------------|
E|----------5---------------3------------------------------------------------|

Verse (Get dressed in your bed, while she's asleep…) [repeat 4 times]:
     E      A       D       G
G|---------------------------------------------------------------------------|
D|---------------------------------------------------------------------------|
A|---7--------------5--------------------------------------------------------|
E|----------5---------------3------------------------------------------------|


Bridge (you ask me to stay…) [play with a more swinging rhythm, repeat 3 times]:
     E      A       D       B
G|---------------------------------------------------------------------------|
D|---------------------------------------------------------------------------|
A|---7--------------5--------------------------------------------------------|
E|----------5---------------7------------------------------------------------|

For last part of Bridge, hold the E note:
     E
G|---------------------------------------------------------------------------|
D|---------------------------------------------------------------------------|
A|---7-----------------------------------------------------------------------|
E|---------------------------------------------------------------------------|

Chorus (Find a job, find a plan, find a home, find a dog...) [repeat 2 times]:
     E      A       D       G
G|---------------------------------------------------------------------------|
D|---------------------------------------------------------------------------|
A|---7--------------5--------------------------------------------------------|
E|----------5---------------3------------------------------------------------|

Guitar Solo [repeat twice]:
     E       A       F#        G      (E F# G)
G|---------------------------------------------------------------------------|
D|---------------------------------------------------------------------------|
A|---7---------------9-------10----------9-10--------------------------------|
E|-----------5------------------------12-------------------------------------|

Verse (Please, please don't point it that way...) [play fewer strikes per note, a 
staccato rhythm, repeat 6 times]:
     E      A       D       G
G|---------------------------------------------------------------------------|
D|---------------------------------------------------------------------------|
A|---7--------------5--------------------------------------------------------|
E|----------5---------------3------------------------------------------------|

Bridge (if you ask me to stay…) [play with a more swinging rhythm, repeat 4 times]:
     E      A       D       B                   last time play F# E G  E
G|---------------------------------------------------------------------------|
D|---------------------------------------------------------------------------|
A|---7--------------5-------------------------------------------9-7----7-----|
E|----------5---------------7---------------------------------------10-------|

At the end of the Bridge, hold the note:
     E
G|---------------------------------------------------------------------------|
D|---------------------------------------------------------------------------|
A|---7-----------------------------------------------------------------------|
E|---------------------------------------------------------------------------|


Bass rests for next few verses (Show me what to say, show me what to be...).


Verse (find a job, find a plan, find a home, find a dog…) [repeat twice]
     E      A       D       G
G|---------------------------------------------------------------------------|
D|---------------------------------------------------------------------------|
A|---7--------------5--------------------------------------------------------|
E|----------5---------------3------------------------------------------------|

Verse (I don't wanna be in there with you...) [repeat twice]
     E      A       F#      G
G|---------------------------------------------------------------------------|
D|---------------------------------------------------------------------------|
A|---7-----------------------------------------------------------------------|
E|----------5-------2-------3------------------------------------------------|

Final note:
     B
G|---------------------------------------------------------------------------|
D|---------------------------------------------------------------------------|
A|---------------------------------------------------------------------------|
E|---7------7-------7--------------------------------------------------------|
Composição de Albert Hammond Jr / Julian Casablancas
Colaboração e revisão:
  • Lucas Idalino
222 exibições

0 comentários

Ver todos os comentários

Conseguiu tocar?

1 Tocaram 0 Ainda não

Grave um vídeo tocando One Way Trigger e nos envie!

00:00 / 00:00
Outros vídeos desta música
Repetir Qualidade Automático
Outros vídeos desta música
00:00 / 00:00
Automático

Cifra Club Pro

Aproveite o Cifra Club com benefícios exclusivos e sem anúncios
Cifra Club Pro
Aproveite o Cifra Club com benefícios exclusivos e sem anúncios
OK