Cifra Club

Soma

The Strokes

Cifra: Principal (violão e guitarra)
tom: C
[Intro]

E|-3-------3-------------------10---------------10-|
B|-0-------0-------5-5---8-8--------5-5---8-8------|
G|-0-------0---------------------------------------|
D|-0-------0---------------------------------------|
A|-2-------2---------------------------------------|
E|-3-------3---------------------------------------|

[Riff]

E|-----------10-------------10-------------8-------------8-|
B|-5-5--8-8-------5-5--8-8-------3-3--6-6-----3-3---6-6----|
G|---------------------------------------------------------|
D|---------------------------------------------------------|
A|---------------------------------------------------------|
E|---------------------------------------------------------|

Soma is what they would take when hard times opened 
their eyes Saw pain in a new way
high stakes for a few names
Racing against sunbeams
Losing against fig trees
In your eyes

      G           Dm
And I  am stop and go In your eyes, see
  G          Dm
I am stop and go In your eyes

E|-3-------3-------3-------3---------------10-----------10--|
B|-0-------0-------0-------0------5-5--8-8----5-5---8-8-----|
G|-0-------0-------0-------0--------------------------------|
D|-0-------0-------0-------0--------------------------------|
A|-2-------2-------2-------2--------------------------------|
E|-3-------3-------3-------3--------------------------------|

[Riff]

When I saw her for the first time
Lips moved as your eyes close
Heard something in his voice
And I'll be there he says
Then he walks out
Somehow he was trying
Too hard to be like them

      G           Dm 
And I  am stop and go in your eyes
      G
And I  am stop
                   Dm
Oh, darling, let me go
                        G
Tried it once and they like it
And tried to hide it
Says I've been doing
this twenty five years

    Dm  
Well I'm, not listening no more
           G 
And these friends they keep asking for more
      Dm
Oh, yeah
                  
Oh, but that's it

[Final]

E|-3-------3-------3-|
B|-0-------0-------0-|
G|-0-------0-------0-|
D|-0-------0-------0-|
A|-2-------2-------2-|
E|-3-------3-------3-|
00:00 / 00:00
Outros vídeos desta música
Repetir
Outros vídeos desta música
Composição de Julian Casablancas
Colaboração e revisão:
  • Joao Gomes
  • Miguel Scapin
  • Nil Ribeiro
38.055 exibições
  • Simplificar cifra
    • ½ Tom
    • A
    • Bb
    • B
    • C
    • Db
    • D
    • Eb
    • E
    • F
    • F#
    • G
    • Ab
  • Adicionar à lista

    0 comentários

    Ver todos os comentários
    00:00 / 00:00

    Cifra Club Pro

    Aproveite o Cifra Club com benefícios exclusivos e sem anúncios
    Cifra Club Pro
    Aproveite o Cifra Club com benefícios exclusivos e sem anúncios
    OK