Cifra Club

You Only Live Once

The Strokes

Cifra: Principal
exibições 279.755
Tom: B
[Guitar 1]

Intro
         (palm-muted) x4
E||-9---7---9---6--------|
B||-9---9---7---7--------|
G||-9---9---8---6--------|
D||----------------------|
A||----------------------|
E||----------------------|
 
                                  (palm-muted)
E||-----------------------------------------------|
B||-----------------------------------------------|
G||-----------------------------------------------|
D||--9-99-9-9-9-9-9-9--9-99-9-9-9-9-9-9-----------|
A||--7-77-7-7-7-7-7-7--7-77-7-7-7-7-7-7-----------|
E||-----------------------------------------------|\
                                                     (x2)
E||-----------------------------------------------|/
B||-----------------------------------------------|
G||-----------------------------------------------|
D||--------------------11-1111-11-11-11-11-11-11--|
A||--9-99-9-9-9-9-9-9---9--9-9--9--9--9--9--9--9--|
E||--7-77-7-7-7-7-7-7-----------------------------|

Verse.   x16        x8           x8
E||---------|---------|------------|
B||---------|---------|------------|    
G||---------|---------|------------|(x 4)
D||--9-9-9--|---------|--11-11-11--|
A||--7-7-7--|--9-9-9--|---9--9--9--|
E||---------|--7-7-7--|------------|

Refrão.                                        x4
    C#  E  G#  F#         B  D# F#  E
E||---------------------|-----------------|
B||---------------------|-----------------|
G||-----9--13--11-------|----8--11--9-----|
D||-11--9--13--11-------|-9--8--11--9-----|
A||-11--7--11--9--------|-9--6--9---7-----|
E||-9-------------------|-7---------------|

                                     (palm-muted)
E||-----------------------------------------------|
B||-----------------------------------------------|
G||-----------------------------------------------|
D||--9-99-9-9-9-9-9-9--9-99-9-9-9-9-9-9-----------|
A||--7-77-7-7-7-7-7-7--7-77-7-7-7-7-7-7-----------|
E||-----------------------------------------------|\
                                                     (x2)
E||-----------------------------------------------|/
B||-----------------------------------------------|
G||-----------------------------------------------|
D||--------------------11-1111-11-11-11-11-11-11--|
A||--9-99-9-9-9-9-9-9---9--9-9--9--9--9--9--9--9--|
E||--7-77-7-7-7-7-7-7-----------------------------|

Verse.   x16        x8            x8
E||---------|---------|------------|
B||---------|---------|------------|    
G||---------|---------|------------|(x 4)
D||--9-9-9--|---------|--11-11-11--|
A||--7-7-7--|--9-9-9--|---9--9--9--|
E||---------|--7-7-7--|------------|

Refrão.                                 x4
    C#  E  G#  F#         B  D# F#  E
E||---------------------|-----------------|
B||---------------------|-----------------|
G||-----9--13--11-------|----8--11--9-----|
D||-11--9--13--11-------|-9--8--11--9-----|
A||-11--7--11--9--------|-9--6--9---7-----|
E||-9-------------------|-7---------------|

No final                    x5
E||--7--x--7-7-x-x------|--7--|
B||--7--x--7-7-x-x------|--7--|
G||--8--x--8-8-x-x------|--8--|
D||--9--x--9-9-x-x------|--9--|
A||---------------------|-----|
E||---------------------|-----|

[Guitar 2]

Intro.                                               x2
E||--9-9-9-9-9--7--7--7-7--7---9-9-9-9-9--6--6--6-6--6--|
B||--9-9-9-9-9--9--9--9-9--9---7-7-7-7-7--7--7--7-7--7--|
G||--9-9-9-9-9--9--9--9-9--9---8-8-8-8-8--6--6--6-6--6--|
D||-----------------------------------------------------|
A||-----------------------------------------------------|
E||-----------------------------------------------------|

Verse. 
E||--9-9-9-9-9--7--7--7-7--7---9-9-9-9-9---------------------|
B||--9-9-9-9-9--9--9--9-9--9---7-7-7-7-7--11--11--11-12--11--|
G||--9-9-9-9-9--9--9--9-9--9---8-8-8-8-8--11--11--11-13--11--|
D||---------------------------------------11--11--11-11--11--|
A||----------------------------------------------------------|
E||----------------------------------------------------------|

E||--9-9-9-9-9--7--7--7-7--7---9-9-9-9-9--6--6--6-6--6--|
B||--9-9-9-9-9--9--9--9-9--9---7-7-7-7-7--7--7--7-7--7--|
G||--9-9-9-9-9--9--9--9-9--9---8-8-8-8-8--6--6--6-6--6--|
D||-----------------------------------------------------|
A||-----------------------------------------------------|
E||-----------------------------------------------------|

E||--9-9-9-9-9--7--7--7-11-11-9---9-9-9-9-9--6--6-------14--------|
B||--9-9-9-9-9--9--9--9-9--9--9---7-7-7-7-7--7--7--7/11----14-11--|
G||--9-9-9-9-9--9--9--9-9--9--9---8-8-8-8-8--6--6-----------------|
D||---------------------------------------------------------------|
A||---------------------------------------------------------------|
E||---------------------------------------------------------------|

E||--9-9-9-9-9--7--7--7-7--7---9-9-9-9-9--6--6--6-6--6--|
B||--9-9-9-9-9--9--9--9-9--9---7-7-7-7-7--7--7--7-7--7--|
G||--9-9-9-9-9--9--9--9-9--9---8-8-8-8-8--6--6--6-6--6--|
D||-----------------------------------------------------|
A||-----------------------------------------------------|
E||-----------------------------------------------------|

Chorus                                                         x2
E||--4-/-7/11/-9------------------|--2-/-6/-9/7-----------------|
B||--5-/-9/12/11--1111/10/9////2--|--4-/-7/11/9--9999/8/7////2--|
G||--6-/-9/13/11--1111/10/9////2--|--4-/-8/11/9--9999/8/7////2--| 
D||-------------------------------------------------------------|       
A||-------------------------------------------------------------|      
E||-------------------------------------------------------------|

Solo.  
E||--------------------------------------------------|
B||--12b(15)r12-11------7----------------------------|
G||-----------------13--9b(11)(11)-9-----------------|
D||----------------------------------9-9/13-13-11-9--|
A||--------------------------------------------------|
E||--------------------------------------------------|

E||--11--9-------------------------------------------|
B||--------11b(12)11---9-----------------------------|
G||-------------------11b(13)(13)11------------------|
D||---------------------------------9-9/14-14-13-9---|
A||--------------------------------------------------|
E||--------------------------------------------------|

E||--12--11--------------------12-----12-----9---11-11-9---------------|
B||---------14-10b(11)10--10-14--14-12--12-11-11---------12--11-////5--|
G||--------------------------------------------------------------------|
D||--------------------------------------------------------------------|
A||--------------------------------------------------------------------|
E||--------------------------------------------------------------------|

>Intro
>Verse
>Chorus

Solo.  
E||--------------------------------------------------|
B||--12b(15)r12-11------7----------------------------|
G||-----------------13--9b(11)(11)-9-----------------|
D||----------------------------------9-9/13-13-11-9--|
A||--------------------------------------------------|
E||--------------------------------------------------|

E||--11--9-------------------------------------------|
B||--------11b(12)11---9-----------------------------|
G||-------------------11b(13)(13)11------------------|
D||---------------------------------9-9/14-14-13-9---|
A||--------------------------------------------------|
E||--------------------------------------------------|

E||--12--11--------------------12-----12-----9---11--9-----------------------------------|
B||---------14-10b(11)10--10-14--14-12--12-11-11-------12--11---9------------------------|
G||------------------------------------------------------------11b(13)13-11--------------|
D||-------------------------------------------------------------------------9-9/14-14-13-|
A||--------------------------------------------------------------------------------------|
E||--------------------------------------------------------------------------------------|

No fim...          x23
E||----11------11------|--11--|
B||--------12------12--|--12--|
G||--11--11--11--11----|--11--|
D||--------------------|------|
A||--------------------|------|
E||--------------------|------|
Acordes para:
    Composição: Julian CasablancasColaboração e revisão:
    • natália
    • luis gustavo

    0 comentários

      mostrar mais comentários

      Conseguiu tocar?

      24tocaram1ainda não

      Grave um vídeo tocando You Only Live Once e mande pra gente!

      00:00 / 00:00
      outros vídeos desta música
      repetirqualidadeautomática
      Outro vídeos desta música
        00:00 / 00:00
        automática
        OK