Cifra Club

This Is How It Feels

The Veronicas

Cifra: Principal (violão e guitarra)
tom: G
(main part - prelude/chorus)

       I             II             III           IV
|-9 9 -9 9 9 -|-9 9 9 -9 9 8 -|-9 9 -9 9 9 -|-9 9 9 -9 9 11-|
|-1111-111111-|-111111-111111-|-1111-111111-|-111111-111111-|
|-------------|---------------|-------------|---------------|
|-------------|---------------|-------------|---------------|
|-------------|---------------|-------------|---------------|
|-------------|---------------|-------------|---------------|

    V         VI      VII      VIII
|-88-888-|-888-888-|-66-666-|-666-666-||
|----999-|-999-999-|----777-|-777-777-||
|--------|---------|--------|---------|| x2 (2nd time: IV:-111111-111111-
|--------|---------|--------|---------||                  -111111-111111- )
|--------|---------|--------|---------||
|--------|---------|--------|---------||

(bridge)

(part I)
|------------||
|------------||
|------------||
|-1--4--8--6-||
|-1--4--8--6-||
|-1--4--8--6-||

(part II)
          ||-6-----------|-------------|-6-----------|--------------|
          ||--66666666666|666666666666-|--66666666666|6666666666666-|
(guitar I  ||-------------|-------------|-------------|--------------|
          ||-------------|-------------|-------------|--------------|
          ||-------------|-------------|-------------|--------------|
          ||-------------|-------------|-------------|--------------|

          ||-6-----6-6---|-6----6------|-6-----6-6---|-6-----6------|
          ||-----------6-|--------6--6-|-----------6-|---------6--6-|
(guitar I  ||-------------|-------------|-------------|--------------|
          ||-------------|-------------|-------------|--------------|
          ||-------------|-------------|-------------|--------------|
          ||-------------|-------------|-------------|--------------|
          ||             |             |             |              |
          ||--9--9--9----|-9-~---------|-9-~---------|-9-~--------
          ||--11-11-11---|-11~---------|-11~---------|-11~----------|
(guitar II ||--10-10-10---|-10~---------|-10~---------|-10~----------|
          ||-------------|-------------|-------------|--------------|
          ||-------------|-------------|-------------|--------------|
          ||-------------|-------------|-------------|--------------|

          ||-8----8-8-8--|--8---8---8--|-6----6-6-6--|--6---6---6--|
          ||-9----9-9-9--|--9---9---9--|-7----7-7-7--|--7---7---7--|
(guitar II ||-8----8-8-8--|--8---8---8--|-6----6-6-6--|--6---6---6--|
          ||-------------|-------------|-------------|-------------|
          ||-------------|-------------|-------------|-------------|
          ||-------------|-------------|-------------|-------------|
00:00 / 00:00
Outros vídeos desta música
Repetir
Outros vídeos desta música
Compositor não encontrado.
Colaboração e revisão:
  • Élison Duarte
360 exibições
    • ½ Tom
    • A
    • Bb
    • B
    • C
    • Db
    • D
    • Eb
    • E
    • F
    • F#
    • G
    • Ab
  • Adicionar à lista

    0 comentários

    Ver todos os comentários

    Conseguiu tocar?

    0 Tocaram 0 Ainda não

    Grave um vídeo tocando This Is How It Feels e nos envie!

    Entre para oCifra Club PRO

    Tenha acesso a benefícios exclusivos no App e no Site

    • Chega de anúncios

    • Prioridade de compra em lançamentos

    • Mais recursos no app do Afinador

    • Atendimento Prioritário

    • Descontos nos produtos Cifra Club

    • Ajude a produzir mais conteúdo

    00:00 / 00:00

    Cifra Club Pro

    Aproveite o Cifra Club com benefícios exclusivos e sem anúncios
    Cifra Club Pro
    Aproveite o Cifra Club com benefícios exclusivos e sem anúncios
    OK