Cifra Club

Get Free

The Vines

Cifra: Principal (violão e guitarra)
tom: G
Versão 1
-======-


INTRODUÇÃO: D5 / D#5 C5 D5 (3x) (no C5 faça um slide para D5) e C5 G5
Repetir 2x (INTRODUÇÃO INTEIRA)

/ - Slide

D5
I wanna get free
I wanna get free
I wanna get free
C5                G5
ride into the sun
D5
She never loved me
She never loved me
She never loved me
C5                      G5
Why should anyone

C5 / D5
Come here
C5  /  D5
Come here
C5    D5
Come here
G5        G#5          F5
I'll take your photo for ya

C5 / D5
Come here
C5 / D5
Come here
C5 / D5
Come here
G5           G#5             F5
Drive you around the corna
C5 / D5     
Come here
C5 / D5
Come here
C5/ D5
Come here
G5           G#5             F5
You know you really oughtta
C5 / D5
Come here
C5 / D5
Come here
C5 / D5
Come here
G5           G#5             F5
Get outta california!!!

Solo: 

e------------------------------------------------------------
b------------------------------------------------------------
g--5---7---5-------5---7---5------5--7--5--7^----5------
d-------------------------------------------------------5---3

2 vezes

D5
Get(get)
Me(me)
Far(far)
C5                         G5
When i've a lot to lose!
D5
Save(save)
Me(me)
From(from)

C5               G5
Here!!(here)
C5 / D5
Come here |
C5 / D5
Come here 
C5 / D5
Come here |
G5 G#5 F5
4 VEZES
G5 G#5 A5

A#5                G5
When it's breeding time
A#5                     A5
Look into your mind away

D5
I'm gonna get free
I'm gonna get free
I'm gonna get free
C5                 G5
Ride into the sun

C5 /   D5
Come here
C5  /  D5
Come here
C5 /   D5
Come here
G5        G#5            F5
I'll take your photo for ya

C5 /   D5
Come here
C5 /   D5
Come here
C5 /   D5
Come here
G5           G#5             F5
Drive you around the corna
C5 /   D5     
Come here
C5 /   D5
Come here
C5/    D5
Come here
G5           G#5              F5
You know you really oughtta
C5 /   D5
Come here
C5 /   D5
Come here
C5 /   D5
Come here
G5           G#5         F5
Get outta california!!!

ACORDES:

C5           D5          D#5         E5           G5         G#5       F5

G -5       G - 7        G - 8       G - 11      G --        G --      G --
D -5       D - 7        D - 8       D - 11      D - 5      D - 6     D - 3
A -3       A - 5        A - 6       A - 7       A - 5      A - 6     A - 3
E --       E --         E --        E --        E - 3      E - 4     E - 1

Na introdução você deve fazer slides e trocar rápido de notas depois do D5.(são todos riff's)
Qualquer dúvida, mande um e-mail.

Essa é a nossa primeira cifra para o Cifra Club, aguarde por mais...

----------------------------------------------------------------------------------------------------------------------
Andrews Ferreira Guedis e Rafael Alves de Caldas





Versão 2
-======-

a Musica e inteira com distorção

intoduçao: 
e----------------|------------------------
b----------------|------------------------
g----------------|--------5-5-5-5-----5---
d----------------|--------5-5-5-5-5-5-5---
a-5-5-5-5-5-5-5p3|--------3-3-3-3-5-5-3---
E----------------|3 vezes---------3-3-----
                              repete 2 vezes


Versos:
e------------------|----------------------------
b------------------|----------------------------
g-7-7-7-7-7-7-7/5/7|------------5-5-5-5-----5---
d-7-7-7-7-7-7-7/5/7|------------5-5-5-5-5-5-5---
a-5-5-5-5-5-5-5/3/5|------------3-3-3-3-5-5-3---
E------------------|2 vezez PM----------3-3-----
                             repete 2 vezes

Refrao:
e--------------|-----------------
b--------------|-----------------
g-5/7--5/7--5/7|-----------------
d-5/7--5/7--5/7|5-5-5-5-6-6-3-3--
a-3/5--3/5--3/7|5-5-5-5-6-6-3-3--
E--------------|3-3-3-3-4-4-1-1--
                             repete 4 vezes

Ponte:
e----------------------------------------
b----------------------------------------
g-3-3-3-3-3-----------3-3-3-3-3-3--------
d-3-3-3-3-3-5-5-5-5-5-3-3-3-3-3-5-5-5-5-5
a-1-1-1-1-1-5-5-5-5-5-1-1-1-1-1-5-5-5-5-5
E-----------3-3-3-3-3-----------3-3-3-3-3


Letra
(verso 1)
I'm Gonna get free
I'm Gonna get free
I'm Gonna get free
Ride into the Sun
She never loved me
She never loved me
She never loved me
Why should anyone

(Refrão)
(come here, come here, come here, come here)
I'll take your photo for ya
(come here, come here, come here, come here)
Drive you arround the corna
(come here, come here, come here, come here)
You know you relly oughtta
(come here, come here, come here, come here)
Move outta California

(Verso 2)
Get (get)
Me (me)
Far (far)
When I have a lot to lose
Save (save)
Me (me)
From (from)
Heeeeeeeeerrrrrrrrrrreeeeeeeeee!!!!!!!!!!

(Refrão)
(come here, come here, come here, come here)
(come here, come here, come here, come here)
(come here, come here, come here, come here)
(come here, come here, come here, come here)

(Ponte)
When it's Breeding Time
Look into your mind away

(verso 1)
I'm Gonna get free
I'm Gonna get free
I'm Gonna get free
Ride into the Sun
She never loved me
She never loved me
She never loved me
Why should anyone

(Refrão)
(come here, come here, come here, come here)
I'll take your photo for ya
(come here, come here, come here, come here)
Drive you arround the corna
(come here, come here, come here, come here)
You know you relly oughtta
(come here, come here, come here, come here)
Move outta California
00:00 / 00:00
Outros vídeos desta música
Repetir
Outros vídeos desta música
Composição de Craig Nicholls
Colaboração e revisão:
  • Newton Filho
  • Andrews Guedis
38.833 exibições
    • ½ Tom
    • A
    • Bb
    • B
    • C
    • Db
    • D
    • Eb
    • E
    • F
    • F#
    • G
    • Ab
  • Adicionar à lista

    0 comentários

    Ver todos os comentários

    Entre para oCifra Club PRO

    Tenha acesso a benefícios exclusivos no App e no Site

    • Chega de anúncios

    • Prioridade de compra em lançamentos

    • Mais recursos no app do Afinador

    • Atendimento Prioritário

    • Descontos nos produtos Cifra Club

    • Ajude a produzir mais conteúdo

    00:00 / 00:00

    Cifra Club Pro

    Aproveite o Cifra Club com benefícios exclusivos e sem anúncios
    Cifra Club Pro
    Aproveite o Cifra Club com benefícios exclusivos e sem anúncios
    OK