Cifra Club

Aprenda

Shake

The Wanton Bishops

Cifra: Principal (violão e guitarra)
tom: D
(INTRO - GTR) e SOLO(...HARMÔNICA...)
    E            E     E         G    A           E
E|------------|---------------|-3--------------|--------------|
B|------------|---------------|-3----3---------|--------------|
G|------------|---------------|------3---------|--------------| (8x)
D|-2-2-2------|-2-2---2-2-2---|------3---------|-2-2-2--------|
A|-2-2-2------|-2-2---2-2-2---|------0---------|-2-2-2--------|
E|-0-0-0------|-0-0---0-0-0---|-3--------------|-0-0-0--------|

 |------------------------(VERSE 1)---------------------------|
E|------------|---------------|-3-------------|---------------|
B|------------|---------------|-3----3--------|---------------|
G|------------|---------------|------3--------|---------------|
D|------------|---------------|------3--------|---------------|
A|------------|---------------|------0--------|---------------|
E|-0-0-0------|-0-0---0-0-0---|---------------|---------------|

 |------------------------(VERSE 2)---------------------------|
E|------------|---------------|---------------|-3-------------|
B|------------|---------------|---------------|-3----3--------|
G|------------|---------------|---------------|------3--------|
D|------------|---------------|---------------|------3--------|
A|------------|---------------|---------------|------0--------|
E|-12/--------|-0-0-0---------|-0-0---0-0-0---|---------------|

 |------------(RIFF 1)------|  |-----------(RIFF 2)-----------|
E|---------------|----------| e|--------------|---------------|
B|-----3---------|----------| B|-----3----5p3-|---------------|
G|-2/4---4/2--0--|-2p0------| G|-2/4----4-----|-4/2--0--2p0---|
D|---------------|------2---| D|--------------|-------------2-|
A|---------------|----------| A|--------------|---------------|
E|---------------|----------| E|--------------|---------------|

 |------------------------(REFRÃO)----------------------------| 
E|---3-2--3-2-------|---------------|-3--------|--------------|
B|-1/3-2--3-2-------|---------------|-3----3---|--------------|
G|------------------|---------------|------3---|--------------|
D|------------2-2-2-|-2-2---2-2-2---|------3---|-2-2-2--------|
A|------------2-2-2-|-2-2---2-2-2---|------0---|-2-2-2--------|
E|------------0-0-0-|-0-0---0-0-0---|-3--------|-0-0-0--------|


.........REPETE TUDO DESDE O INÍCIO........

(INTRO - GTR) e SOLO(...HARMÔNICA...)
    E            E     E         G    A           E
E|------------|---------------|-3--------------|--------------|
B|------------|---------------|-3----3---------|--------------|
G|------------|---------------|------3---------|--------------| (8x)
D|-2-2-2------|-2-2---2-2-2---|------3---------|-2-2-2--------|
A|-2-2-2------|-2-2---2-2-2---|------0---------|-2-2-2--------|
E|-0-0-0------|-0-0---0-0-0---|-3--------------|-0-0-0--------|

 |------------------------(VERSE 1)---------------------------|
E|------------|---------------|-3-------------|---------------|
B|------------|---------------|-3----3--------|---------------|
G|------------|---------------|------3--------|---------------|
D|------------|---------------|------3--------|---------------|
A|------------|---------------|------0--------|---------------|
E|-0-0-0------|-0-0---0-0-0---|---------------|---------------|

 |------------------------(VERSE 2)---------------------------|
E|------------|---------------|---------------|-3-------------|
B|------------|---------------|---------------|-3----3--------|
G|------------|---------------|---------------|------3--------|
D|------------|---------------|---------------|------3--------|
A|------------|---------------|---------------|------0--------|
E|-12/--------|-0-0-0---------|-0-0---0-0-0---|---------------|

 |--------(RIFF 1)----------|  |-----------(RIFF 2)-----------|
E|---------------|----------| e|--------------|---------------|
B|-----3---------|----------| B|-----3----5p3-|---------------|
G|-2/4---4/2--0--|-2p0------| G|-2/4----4-----|-4/2--0--2p0---|
D|---------------|------2---| D|--------------|-------------2-|
A|---------------|----------| A|--------------|---------------|
E|---------------|----------| E|--------------|---------------|

 |------------------------(REFRÃO)----------------------------| 
E|---3-2--3-2-------|---------------|-3--------|--------------|
B|-1/3-2--3-2-------|---------------|-3----3---|--------------|
G|------------------|---------------|------3---|--------------|
D|------------2-2-2-|-2-2---2-2-2---|------3---|-2-2-2--------|
A|------------2-2-2-|-2-2---2-2-2---|------0---|-2-2-2--------|
E|------------0-0-0-|-0-0---0-0-0---|-3--------|-0-0-0--------|

(INTRO - GTR) e SOLO(...HARMÔNICA...)
    E            E     E         G    A           E
E|------------|---------------|-3--------------|--------------|
B|------------|---------------|-3----3---------|--------------|
G|------------|---------------|------3---------|--------------| (8x)
D|-2-2-2------|-2-2---2-2-2---|------3---------|-2-2-2--------|
A|-2-2-2------|-2-2---2-2-2---|------0---------|-2-2-2--------|
E|-0-0-0------|-0-0---0-0-0---|-3--------------|-0-0-0--------|

 |--------------------------(SOLO)----------------------------| 
E|------12-12-12--|--------------------|-3--------|-----------|
B|-/12--15-14-12/-|--------------------|-3----3---|-----------|
G|----------------|--------------------|------3---|-----------|
D|----------------|-2-2-2--2-2---2-2-2-|------3---|-----------|
A|----------------|-2-2-2--2-2---2-2-2-|------0---|-----------|
E|----------------|-0-0-0--0-0---0-0-0-|-3--------|-----------|

E|------12-12-12--|---------------|---------------------------|
B|-/12--15-14-12/-|-------------0-|-5/3p0------0--------------|
G|----------------|-0-3-0---3/5---|--------2b4---2b4r2-0------|
D|----------------|---------------|----------------------3----|
A|----------------|---------------|---------------------------|
E|----------------|---------------|---------------------------|

(INTRO - GTR) e SOLO(...HARMÔNICA...)
    E            E     E         G    A           E                  E
E|------------|---------------|-3--------------|-------|     |--------|
B|------------|---------------|-3----3---------|-------|     |--------|
G|------------|---------------|------3---------|-------|     |--------|
D|-2-2-2------|-2-2---2-2-2---|------3---------|-2-2-2-|(8x) |------2-|
A|-2-2-2------|-2-2---2-2-2---|------0---------|-2-2-2-|     |------2-|
E|-0-0-0------|-0-0---0-0-0---|-3--------------|-0-0-0-|     |------0-|
Compositor não encontrado.
Colaboração e revisão:
  • Giuliano Vargas
32 exibições
    • ½ Tom
    • A
    • Bb
    • B
    • C
    • Db
    • D
    • Eb
    • E
    • F
    • F#
    • G
    • Ab
  • Adicionar à lista

    0 comentários

    Ver todos os comentários

    Conseguiu tocar?

    1 Tocaram 0 Ainda não

    Grave um vídeo tocando Shake e nos envie!

    00:00 / 00:00
    Outros vídeos desta música
    Repetir Qualidade Automático
    Outros vídeos desta música
    00:00 / 00:00
    Automático

    Cifra Club Pro

    Aproveite o Cifra Club com benefícios exclusivos e sem anúncios
    Cifra Club Pro
    Aproveite o Cifra Club com benefícios exclusivos e sem anúncios
    OK