Cifra Club

Aprenda

Sunrising

The Wanton Bishops

Cifra: Principal (violão e guitarra)
tom: D
Intro: Tocar (2x) o riff1 e riff2

 |------------------(RIFF 1)------------------|
 |                                            |
E|---1/3~----|-3--3-3-3-----|---1---3---1/3~--|
B|-----------|-3--3-3-3-----|-----------------|
G|-----------|--------------|-0---0---0-------|
D|-----------|--------------|-----------------|
A|-----------|--------------|-----------------|
E|-----------|--------------|-----------------|
 
 |------------------(RIFF 2)------------------|
 |                                            |
E|---1/3~----|-----3--3-3-3-|---1---3---1/7~--|
B|-----------|-----3--3-3-3-|-----------------|
G|-----------|--------------|-0---0---0-------|
D|-----------|--------------|-----------------|
A|-----------|--------------|-----------------|
E|-----------|-1/3----------|-----------------|
 
 |-----------(FINALIZANDO A INTRO)------------|
 |                                            |
E|-3--3-------|-------------|-----------------|
B|-3--3-------|-------------|-----------------|
G|------------|-------------|-----------------|
D|------------|-5--5--------|-----------------|
A|------------|-5--5--------|-----------------|
E|-3--3-------|-3--3--------|-3--3---------3--|

 |------------------------(VERSE 1):--------------------------|
 |Lie to me...,                 You know I like it like that...,
E|------------|---------------|---------------|------------3--|
B|------------|---6---5-------|---------------|---6---5-------|
G|------------|-0---0---------|---------------|-0---0---------|
D|------------|---------------|---------------|---------------|
A|------------|---------------|---------------|---------------|
E|------------|---------------|---------------|---------------|

 |Would you die for me now...,  Like I'd die for you...       |
E|------------|---------------|---------------|------------3--|
B|------------|---6---5-------|---------------|---6---5-------|
G|------------|-0---0---------|---------------|-0---0---------|
D|------------|---------------|---------------|---------------|
A|------------|---------------|---------------|---------------|
E|------------|---------------|---------------|---------------|

 |Let's take the open wide yeah...,  Let's imitate the tide now...,
E|------------|-15--15-15-15\-|---------------|-15--15-15-15\-|
B|------------|-15--15-15-15\-|---------------|-15--15-15-15\-|
G|------------|---------------|---------------|---------------|
D|------------|---------------|---------------|---------------|
A|------------|---------------|---------------|---------------|
E|------------|---------------|---------------|---------------|

 |Earth stood still..., the writer's quill..., Is dripping wet...
E|------------|-15--15-15-15\-|---------------|---------------|
B|------------|-15--15-15-15\-|---------------|---------------|
G|------------|---------------|---------------|---------------|
D|------------|---------------|---------------|---------------|
A|------------|---------------|---------------|---------------|
E|------------|---------------|---------------|-3-3--3-3----3-|

 |-----------------(REFRÃO 4X):---------------|

    "...Sun sun rising babe, sun rising..."
 |------------------(RIFF 1)------------------|
 |                                            |
E|---1/3~----|-3--3-3-3-----|---1---3---1/3~--|
B|-----------|-3--3-3-3-----|-----------------|
G|-----------|--------------|-0---0---0-------|
D|-----------|--------------|-----------------|
A|-----------|--------------|-----------------|
E|-----------|--------------|-----------------|

     "...Sun sun rising babe, sun rising..."
 |------------------(RIFF 2)------------------|
 |                                            |
E|---1/3~----|-----3--3-3-3-|---1---3---1/7~--|
B|-----------|-----3--3-3-3-|-----------------|
G|-----------|--------------|-0---0---0-------|
D|-----------|--------------|-----------------|
A|-----------|--------------|-----------------|
E|-----------|-1/3----------|-----------------|
 
 |-----------(FINALIZANDO A INTRO)------------|
 |                                            |
E|-3--3-------|-------------|-----------------|
B|-3--3-------|-------------|-----------------|
G|------------|-------------|-----------------|
D|------------|-5--5--------|-----------------|
A|------------|-5--5--------|-----------------|
E|-3--3-------|-3--3--------|-3--3---------3--| 

 |-------------------------(VERSE 2):-------------------------|
 |Grant me access...,         To your velvet forest...,
E|------------|---------------|---------------|------------3--|
B|------------|---6---5-------|---------------|---6---5-------|
G|------------|-0---0---------|---------------|-0---0---------|
D|------------|---------------|---------------|---------------|
A|------------|---------------|---------------|---------------|
E|------------|---------------|---------------|---------------|

 |That tropical dream...,     Our dream of steam....
E|------------|---------------|---------------|------------3--|
B|------------|---6---5-------|---------------|---6---5-------|
G|------------|-0---0---------|---------------|-0---0---------|
D|------------|---------------|---------------|---------------|
A|------------|---------------|---------------|---------------|
E|------------|---------------|---------------|---------------|

 |Waterfalls yeah...,         When you twist and twirl now...,
E|------------|-15--15-15-15\-|---------------|-15--15-15-15\-|
B|------------|-15--15-15-15\-|---------------|-15--15-15-15\-|
G|------------|---------------|---------------|---------------|
D|------------|---------------|---------------|---------------|
A|------------|---------------|---------------|---------------|
E|------------|---------------|---------------|---------------|

 |Lord it hurts...,  it hurts to be awake...,  Let's go again now...
E|------------|-15--15-15-15\-|---------------|---------------|
B|------------|-15--15-15-15\-|---------------|---------------|
G|------------|---------------|---------------|---------------|
D|------------|---------------|---------------|---------------|
A|------------|---------------|---------------|---------------|
E|------------|---------------|---------------|-3-3--3-3----3-|

 |-----------------(REFRÃO 8X):---------------|

    "...Sun sun rising babe, sun rising..."
 |------------------(RIFF 1)------------------|
 |                                            |
E|---1/3~----|-3--3-3-3-----|---1---3---1/3~--|
B|-----------|-3--3-3-3-----|-----------------|
G|-----------|--------------|-0---0---0-------|
D|-----------|--------------|-----------------|
A|-----------|--------------|-----------------|
E|-----------|--------------|-----------------|

     "...Sun sun rising babe, sun rising..."
 |------------------(RIFF 2)------------------|
 |                                            |
E|---1/3~----|-----3--3-3-3-|---1---3---1/7~--|
B|-----------|-----3--3-3-3-|-----------------|
G|-----------|--------------|-0---0---0-------|
D|-----------|--------------|-----------------|
A|-----------|--------------|-----------------|
E|-----------|-1/3----------|-----------------|
 
 |-----------(FINALIZANDO A INTRO)------------|
 |                                            |
E|-3--3-------|-------------|-----------------|
B|-3--3-------|-------------|-----------------|
G|------------|-------------|-----------------|
D|------------|-5--5--------|-----------------|
A|------------|-5--5--------|-----------------|
E|-3--3-------|-3--3--------|-3--3---------3--| 

Lyrircs:

Lie to me,
You know I like it like that,
Would you die for me now,
Like I'd die for you.

Let's take the open wide yeah,
Let's imitate the tide now,
Earth stood still, the writer's quill
Is dripping wet.

Sun sun rising babe, sun rising

Grant me access,
To your velvet forest,
That tropical dream,
Our dream of steam.

Waterfalls yeah,
When you twist and twirl now,
Lord it hurts, it hurts to be awake,
Let's go again now.

Sun sun rising babe, sun rising
Composição de Nader Mansour / Eddy Ghosein
Colaboração e revisão:
  • Giuliano Vargas
24 exibições
    • ½ Tom
    • A
    • Bb
    • B
    • C
    • Db
    • D
    • Eb
    • E
    • F
    • F#
    • G
    • Ab
  • Adicionar à lista

    0 comentários

    Ver todos os comentários

    Conseguiu tocar?

    1 Tocaram 0 Ainda não

    Grave um vídeo tocando Sunrising e nos envie!

    00:00 / 00:00
    Outros vídeos desta música
    Repetir Qualidade Automático
    Outros vídeos desta música
    00:00 / 00:00
    Automático

    Cifra Club Pro

    Aproveite o Cifra Club com benefícios exclusivos e sem anúncios
    Cifra Club Pro
    Aproveite o Cifra Club com benefícios exclusivos e sem anúncios
    OK