Cifra Club

Crystalised

The XX

Cifra: Principal (violão e guitarra)
tom: C
Intro
E|---------------------------------------------------------------------------|
B|---------------------------------------------------------------------------|
G|-----11-11-10-9---------------9--------------------------------------------|
D|--9--------------11-11-11--12--12-9---9-9-12-12-12----------12-9-----------|
A|---------------------------------------------------10----10----------------|
E|---------------------------------------------------------------------------|
 
E|---------------------------------------------------------------------------|
B|---------------------------------------------------------------------------|
G|-----11-11-10-9---------------9--------------------------------------------|
D|--9--------------11-11-11--12--12-9---9-9-12-12-12-------------------------|
A|---------------------------------------------------10----------------------|
E|---------------------------------------------------------------------------|

Parte 1 (Verso)
E|--------------------------------------------------------------------------------------|
B|--------------------------------------------------------------------------------------|
G|--------------------------------------------------------------------------------------|
D|-9999-12-12-12-11-11-11-11-12-11-12-9999-14-14-14-14-11-11-11-11-11-11-12-11-12-------|
A|--------------------------------------------------------------------------------------|
E|--------------------------------------------------------------------------------------|

Parte 2 (Verso)

E|------------------------------------------------------------------|
B|------------------------------------------------------------------|
G|------------------------------------------------------------------|
D|-9999-12-12-12-12-11-11-11-11-11-12-11-12-9999-14-14-14-14/11-----|
A|------------------------------------------------------------------|
E|------------------------------------------------------------------|

Baixo: ( Não Guitarra )
E|------------------------------------------------------------------|
B|------------------------------------------------------------------|
G|------------------------------------------------------------------|
D|--2222222222222222----------------2222222222222222----------------|
A|-------------------2-2-2-0-0-0---------------------2-2-2-0-0-0----|
E|------------------------------------------------------------------|

E|------------------------------------------------------------------|
B|------------------------------------------------------------------|
G|------------------------------------------------------------------|
D|------------------------------------------------------------------|
A|-------------------2-2-2-0-0-0---------------------2-2-2/4-4-45-5-|
E|--0000000-000000------------------0000000-0000000-----------------|

E|------------------------------------------------------------------|
B|------------------------------------------------------------------|
G|------------------------------------------------------------------|
D|------------------------------------------------------------------|
A|-------------------2-2-2-0-0-0---------------------2-2-2/4-4-45-5-|
E|--00000000-0-00000----------------00000000-0-00000----------------|

E|------------------------------------------------------------------|
B|------------------------------------------------------------------|
G|------------------------------------------------------------------|
D|------------------------------------------------------------------|
A|-------------------2-2-2-0-0-0-000-----------------2-2-2/4-4-45-5-|
E|--00000000000000------------------0000000000000000----------------|

Refrão:

E|------------------------------------------------------------------|
B|---30-30-30-30-30-3-3-3332-2-2-222-30-30-30-30-30--3-3-333/2------|
G|--1--1--1--1--1--1----------------1--1--1--1--1--1----------------|
D|------------------------------------------------------------------|
A|------------------------------------------------------------------|
E|------------------------------------------------------------------|

E|--------------------------------------------------------------------------------------|
B|--------------------------------------------------------------------------------------|
G|--------------------------------------------------------------------------------------|
D|-9999-12-12-12-11-11-11-11-12-11-12-9999-14-14-14-14-11-11-11-11-11-11-12-11-12-------|
A|--------------------------------------------------------------------------------------|
E|--------------------------------------------------------------------------------------|

E|------------------------------------------------------------------|
B|------------------------------------------------------------------|
G|------------------------------------------------------------------|
D|-9999-12-12-12-12-11-11-11-11-11-12-11-12-9999-14-14-14-14/11-----|
A|------------------------------------------------------------------|
E|------------------------------------------------------------------|

Baixo :
E|------------------------------------------------------------------|
B|------------------------------------------------------------------|
G|------------------------------------------------------------------|
D|--2222222222222222----------------2222222222222222----------------|
A|-------------------2-2-2-0-0-0-000-----------------2-2-2-0-0-0----|
E|------------------------------------------------------------------|

E|------------------------------------------------------------------|
B|------------------------------------------------------------------|
G|------------------------------------------------------------------|
D|------------------------------------------------------------------|
A|---------------------------------------------------2-2-2/4-4-45-5-|
E|----------------------------------0000000000000000----------------|

Guitarra :
E|------------------------------------------------------------------|
B|------------------------------------------------------------------|
G|--44447776666676744449999/6666676744447776666676744449999/6-------|
D|------------------------------------------------------------------|
A|------------------------------------------------------------------|
E|------------------------------------------------------------------|

E|------------------------------------------------------------------|
B|---30-30-30-30-30-3-3-3332-2-2-222-30-30-30-30-30--3-3-333/2--222-|
G|--1--1--1--1--1--1----------------1--1--1--1--1--1----------------|
D|------------------------------------------------------------------|
A|------------------------------------------------------------------|
E|------------------------------------------------------------------|

E|------------------------------------------------------------------|
B|---30-30-30-30-30-3-3-3332-2-2-222-30-30-30-30-30--3-3-333/2--222-|
G|--1--1--1--1--1--1----------------1--1--1--1--1--1----------------|
D|------------------------------------------------------------------|
A|------------------------------------------------------------------|
E|------------------------------------------------------------------|
    1-:-2-:-3-:-4-:-5-:-6-:-7-:-8-:-1-:-2-:-3-:-4-:-5-:-6-:-7-:-8-:-|

_________________________________________________________________________________________________
                   Letra


Intro : ( Sem vocal )


Baixo :
You've applied the pressure
To have me crystalised
And you've got the faith
That I could bring paradise

I'll forgive and forget
Before I'm paralysed
Do I have to keep up the pace
To keep you satisfied?

Things have gotten closer to the sun
And I've done things in small doses
So don't think that I'm pushing you away
When you're the one that I've kept closest

Refrão + Verso
You don't move slow
And taking steps in my direction
The sound resounds, echo
Does it lessen your affection? No

You say I'm foolish
For pushing this aside
But burn down our home
I won't leave alive

Glaciers melt into the sea
I wish the tide would take me over
I've been down on my knees
And you just keep on getting closer

Glaciers melted to the sea (things have gotten closer to the sun)
I wish the tide would take me over (and I've done things in small doses)
I've been down on my knees (so don't think that I'm pushing you away)
And you just keep on getting closer (when you're the one that I've kept closest)

Baixo:
Go slow
Go slow
Go slow
Go slow
Go slow
Composição de Oliver Sim
Colaboração e revisão:
45.486 exibições
    • ½ Tom
    • A
    • Bb
    • B
    • C
    • Db
    • D
    • Eb
    • E
    • F
    • F#
    • G
    • Ab
  • Adicionar à lista

    0 comentários

    Ver todos os comentários

    Conseguiu tocar?

    9 Tocaram 5 Ainda não

    Grave um vídeo tocando Crystalised e nos envie!

    00:00 / 00:00
    Outros vídeos desta música
    Repetir Qualidade Automático
    Outros vídeos desta música
    00:00 / 00:00
    Automático

    Cifra Club Pro

    Aproveite o Cifra Club com benefícios exclusivos e sem anúncios
    Cifra Club Pro
    Aproveite o Cifra Club com benefícios exclusivos e sem anúncios
    OK