Cifra Club

Finally

The XX

Cifra: Principal (violão e guitarra)
Selo Cifra Club: esta cifra foi revisada para atender aos critérios oficiais da nossa Equipe de Qualidade.
tom: Eb
E|------------------|
B|------------------|
G|--13------12------| (x2)
D|--15------13------|
A|------------------|
E|------------------|

Guitar solo: 
E|------------------------------------------------------------------------|
B|------------------------------------------------------------------------|
G|-13-13-13-13-----13-13-13-13-15-15-12-12-12-12-----12-12-12-12-10-10/---| (x2)
D|------------15-15-----------------------------13-13---------------------|
A|------------------------------------------------------------------------|
E|------------------------------------------------------------------------|

Verse 2: 
(Where do we go from here...)

Chorus: no guitar
(So tell me how do you do...)

Chorus again:
E|------------------|
B|------------------|
G|--13-----12-------|
D|--15-----13-------| (x2)
A|------------------|
E|------------------|

Guitar solo: 
E|------------------------------------------------------------------------|
B|------------------------------------------------------------------------|
G|-13-13-13-13-----13-13-13-13-15-15-12-12-12-12-----12-12-12-12-10-10-13~| (x2)
D|------------15-15-----------------------------13-13---------------------|
A|------------------------------------------------------------------------|
E|------------------------------------------------------------------------|

E|---------------------------------------------------------------|
B|---------------------------------------------------------------|
G|--15-12----15-12----15-12---------15-12-----15-12----15-12-----| (x2)
D|-------15-------15-------15------------13--------13-------13---|
A|---------------------------------------------------------------|
E|---------------------------------------------------------------|

Chorus (no guitar)

Guitar Solo:
E|-------------------------------------------|
B|-------------------------------------------|
G|--15-12----15-12-------15-12-----15-12-----|
D|-------15-------15----------13--------13---|
A|-------------------------------------------|
E|-------------------------------------------|

E|---------------------------------------------------|
B|---------------------------------------------------|
G|--15-12----15-12-------15-12-----15-12-----15-12---|
D|-------15-------15----------13--------13--------13-|
A|---------------------------------------------------|
E|---------------------------------------------------|

E|------------------------------------------------------------------------|
B|------------------------------------------------------------------------|
G|-13-13-13-13-----13-13-13-13-15-15-12-12-12-12-----12-12-12-12-10-10-13~| (x2)
D|------------15-15-----------------------------13-13---------------------|
A|------------------------------------------------------------------------|
E|------------------------------------------------------------------------|

E|-------------------------------------------------------------------|
B|-------------------------------------------------------------------|
G|--15-12----15-12----15-12---------15-12-----15-12----15-12---------| (x2)
D|-------15-------15-------15------------13--------13-------13-15~---|
A|-------------------------------------------------------------------|
E|-------------------------------------------------------------------|
00:00 / 00:00
Outros vídeos desta música
Repetir
Outros vídeos desta música
1 exibições
    • ½ Tom
    • A
    • Bb
    • B
    • C
    • Db
    • D
    • Eb
    • E
    • F
    • F#
    • G
    • Ab
  • Adicionar à lista

Afinação da cifra

Afinador online

    0 comentários

    Ver todos os comentários

    Conseguiu tocar?

    0 Tocaram 0 Ainda não

    Grave um vídeo tocando Finally e nos envie!

    Toque também

    1. Imagem do artista Bon Iver Roslyn Bon Iver
    2. Imagem do artista Florence + The Machine Dog Days Are Over Florence + The Machine
    3. Imagem do artista Chet Faker Talk Is Cheap Chet Faker
    4. Imagem do artista Crystal Castles Celestica Crystal Castles

    Entre para o Cifra Club PRO

    Tenha acesso a benefícios exclusivos no App e no Site

    • Chega de anúncios

    • Mais recursos no app do Afinador

    • Atendimento Prioritário

    • Aumente seu limite de lista

    • Ajude a produzir mais conteúdo

    00:00 / 00:00

    Cifra Club Pro

    Aproveite o Cifra Club com benefícios exclusivos e sem anúncios
    Cifra Club Pro
    Aproveite o Cifra Club com benefícios exclusivos e sem anúncios
    OK