Cifra Club

Aprenda

Intro

The XX

Cifra: Principal (violão e guitarra)
tom: F
E|---------------------------------------------------------------------------------------------------------------|
B|---------------------------------------------------------------------------------------------------------------|
G|-22--222--222--222--2/5--55--555--555--555--5/7--777--777--777--7/9--9999--9/7--77--7/5--55--0-2|
D|---------------------------------------------------------------------------------------------------------------|
A|---------------------------------------------------------------------------------------------------------------|
E|---------------------------------------------------------------------------------------------------------------|

E|-------------------------------------------------------------------|
B|---1-1-3-3-1-1-------1-3-3-1-1------1-1-5-5-1-1-3-3-1-1-5-5-1-1----|
G|-2----------------2-------------2-2------------------------------2-|
D|-------------------------------------------------------------------|
A|-------------------------------------------------------------------|
E|-------------------------------------------------------------------|

[Solo]

E|-------------------------------------------------------------------|
B|-------------------------------------------------------------------|
G|-2---2/5---7-9-5---5/7--12-7/9/5-----------------------------------|
D|-------------------------------------------------------------------|
A|-------------------------------------------------------------------|
E|-------------------------------------------------------------------|

[Intro] F Am F Am
        F Am F Am

F
aah aah aaaah aah
Am
aah aah aaaah aah
F
aah aah aaaah aah
Am
aah aah aaaah aah

F
aah aah aaaah aah
Am
aah aah aaaah aah
F
aah aah aaaah aah
Am
aah aah aaaah aah

F
aah aah aaaah aah
Am
aah aah aaaah aah
F
aah aah aaaah aah
Am
aah aah aaaah aah

F
aah aah aaaah aah
Am
aah aah aaaah aah
F
aah aah aaaah aah
Am
aah aah aaaah aah

F
aah aah aaaah aah
Am
aah aah aaaah aah
F
aah aah aaaah aah
Am
aah aah aaaah aah

F
aah aah aaaah aah
Am
aah aah aaaah aah
F
aah aah aaaah aah
Am
aah aah aaaah aah


(Solo Final) 

E|-------------------------------------------------------------------|
B|-------------------------------------------------------------------|
G|-2---2/5---7-9-5---5/7--12-7/9/5-----------------------------------|
D|-------------------------------------------------------------------|
A|-------------------------------------------------------------------|
E|-------------------------------------------------------------------|


Composição de Oliver Sim
Colaboração e revisão:
30.784 exibições
    • ½ Tom
    • A
    • Bb
    • B
    • C
    • Db
    • D
    • Eb
    • E
    • F
    • F#
    • G
    • Ab
  • Adicionar à lista

    0 comentários

    Ver todos os comentários

    Conseguiu tocar?

    23 Tocaram 5 Ainda não

    Grave um vídeo tocando Intro e nos envie!

    00:00 / 00:00
    outros vídeos desta música
    repetir qualidade Automático
    Outros vídeos desta música
    00:00 / 00:00
    Automático

    Cifra Club Pro

    Aproveite o Cifra Club com benefícios exclusivos e sem anúncios
    Cifra Club Pro
    Aproveite o Cifra Club com benefícios exclusivos e sem anúncios
    OK