Cifra Club

Minha Essência

Thiago Brado

Cifra: Simplificada (violão e guitarra)
tom: G
[Intro] C  F  Am  F
        C  F  Am  G

[Primeira Parte]

 C       
Vim até aqui
      F            Am      A9 Am
Derramar o meu passado em ti
                         Dm
Vim banhar os pés que andaram por aí
                 G
Sem carinho receber

 C            
Hoje estou aqui
 F             Am
Não por que mereço eu sei
                  Dm
Pois tu sabes por onde eu andei
                       G
Conheces bem o meu perfume

[Pré-Refrão]

        Am
Mas tu sabes também
                      Em
Que o meu choro é sincero porém
                       F           Dm
Não tenho nada a oferecer meu Senhor
                    G   
Mas te dou a minha vida

[Refrão]

            C 
É tudo que tenho
  F           Am  A9 Am
Recebe o meu nada
           F   Dm
Refaz a morada
           G  
Habita em mim

                C 
Me pega em teu colo
     F            Am A9 Am
Me acalma em teu peito
              F    Dm
Sou Teu sou eleito
             G                     C
E a minha essência é exalar, Teu cheiro

( F  Am  F )
( C  F  C  G )

[Primeira Parte]

 C       
Vim até aqui
      F            Am      A9 Am
Derramar o meu passado em ti
                         Dm
Vim banhar os pés que andaram por aí
                 G
Sem carinho receber

 C            
Hoje estou aqui
 F             Am
Não por que mereço eu sei
                  Dm
Pois tu sabes por onde eu andei
                       G
Conheces bem o meu perfume

[Pré-Refrão]

        Am
Mas tu sabes também
                      Em
Que o meu choro é sincero porém
                       F           Dm
Não tenho nada a oferecer meu Senhor
                    G   
Mas te dou a minha vida

[Refrão]

            C 
É tudo que tenho
  F           Am  A9 Am
Recebe o meu nada
           F   Dm
Refaz a morada
           G  
Habita em mim

                C 
Me pega em teu colo
     F            Am A9 Am
Me acalma em teu peito
              F    Dm
Sou Teu sou eleito
             G                     C
E a minha essência é exalar, Teu cheiro

É tudo que tenho
  F           Am  A9 Am
Recebe o meu nada
           F   Dm
Refaz a morada
           G  
Habita em mim

                C 
Me pega em teu colo
     F            Am A9 Am
Me acalma em teu peito
              F    Dm
Sou Teu sou eleito
             G                     C
E a minha essência é exalar, Teu cheiro

[Final] F  Am  F 
        C  F  Am  G  C

[Final]

E|----------------------------------------------------------|
B|-13-12-----13-12----13-12-----13-12--8--------------------|
G|-------9---------9--------9-------------------------------|
D|----------------------------------------------------------|
A|----------------------------------------------------------|
E|----------------------------------------------------------|

[Pré-Refrão]

E|-------------------------------------------------------10-|
B|-13-12-----12-10----10-8-10--8-10-12-12/13-12-10-12-13----|
G|-------9---------9----------------------------------------|
D|----------------------------------------------------------|
A|----------------------------------------------------------|
E|----------------------------------------------------------|

[Refrão]

É tudo o que tenho

E|--------------------13-12--------------12-----------------|
B|-13-12-----13-12----------15--13-13-15----15-13-12--------|
G|-------9---------9----------------------------------------|
D|----------------------------------------------------------|
A|----------------------------------------------------------|
E|----------------------------------------------------------|

Me pega em teu colo...
E|--------------------13-12--------------12-12--------------|
B|-13-12-----13-12----------15--12-13-15-------15---13-12---|
G|-------9---------9----------------------------------------|
D|----------------------------------------------------------|
A|----------------------------------------------------------|
E|----------------------------------------------------------|
Composição de Thiago Brado
Colaboração e revisão:
173.003 exibições
    • ½ Tom
    • A
    • Bb
    • B
    • C
    • Db
    • D
    • Eb
    • E
    • F
    • F#
    • G
    • Ab
  • Adicionar à lista

    0 comentários

    Ver todos os comentários
    00:00 / 00:00
    Outros vídeos desta música
    Repetir Qualidade Automático
    Outros vídeos desta música
    00:00 / 00:00
    Automático

    Cifra Club Pro

    Aproveite o Cifra Club com benefícios exclusivos e sem anúncios
    Cifra Club Pro
    Aproveite o Cifra Club com benefícios exclusivos e sem anúncios
    OK