Cifra Club

Aprenda

Não Estou Só

Thiago Brado

Cifra: Principal (violão e guitarra)
Tom: D
[Intro] Em  G  Bm  A

      Em                     G             Bm               A
E|-----------------10-9-------------------------------------------------------|
B|-------------12--------12-10------------------------------------------------|
G|---9-11-12------------------------------9-11-12-11---9----------------------|
D|--------------------------------------12-----------12-----------------------|
A|----------------------------------------------------------------------------|
E|----------------------------------------------------------------------------|

      Em                     G             Bm       A
E|-----------------10-9-----------------10-10--12-9--------10-9---------------|
B|-------------12--------12-10-------------------------------------12-10------|
G|---9-11-12------------------------------------------------------------------|
D|----------------------------------------------------------------------------|
A|----------------------------------------------------------------------------|
E|----------------------------------------------------------------------------|

       D    A       Bm            G             Em              A
Sou pequeno, muito falho, mas eu sei que o teu amor por mim é grande
      D     A     Bm           G           Em             A
Não mereço, mas preciso deste amor que me acolhe e me constrange
       Em                           Bm           Em                    Bm A
Você ouviu as minhas lágrimas em silêncio e com teu singelo amor me abraçou
    Em                        Bm            G             Em      A
No sereno de uma noite tive medo, mas vi nascer um lindo dia clarear
           D          A            G     Em    A       F#         Bm       F#m
Nos teus braços me acalmei tive coragem não desisti, abri meus olhos enxerguei
          G           Em       A                    D
Que não estou só, não estou só, tenho sempre o teu amor
Colaboração e revisão:
29.827 exibições
    • ½ Tom
    • A
    • Bb
    • B
    • C
    • Db
    • D
    • Eb
    • E
    • F
    • F#
    • G
    • Ab
  • Adicionar à lista

    0 comentários

    Mostrar mais comentários
    00:00 / 00:00
    outros vídeos desta música
    repetir qualidade Automático
    Outros vídeos desta música
    00:00 / 00:00
    Automático
    OK