Cifra Club

Oh Mamãe

Thiago Brava

Cifra: Principal (violão e guitarra)
exibições 35.498
Tom: A
[Intro]

E|----------------------------------------------------------|
B|---------10------10---9------7---7---5-------3------3-----|
G|----------------------------------------------------------|
D|---9/11------11-------9------7---7---5---4------4---------|
A|----------------------------------------------------------|
E|----------------------------------------------------------|

E|----------------------------------------------------------|
B|-----5---7/9----7-------5----7/9----9---7---------5-------|
G|----------------------------------------------------------|
D|--6------7/9----7----6-------7/9----9---7-----6-----------|
A|----------------------------------------------------------|
E|----------------------------------------------------------|

A                                     F#m
Oh mamãe, pode deixar e não precisa preocupar
                               D
Eu volto cedo quando o dia clarear
                                E
Sou responsável e já sei o que fazer ê ê

      A
Oh mamãe
                              F#m
Hoje a certeza absoluta e CE vai ver
                                D
Sou comportado e não posso dar PT
                              E
Amanha cedo eu preciso trabalhar
                                       A
E nem precisa perguntar como é que eu vou, eu vou, eu vou, vai

                                    F#m                                        D
Ta indo eu, o jhony, o Black, o red o Zé aquele mexicano que ta sempre com mulher
                                       E
Que deixa o povo louco sem saber aonde está, ah ah

      A
Oh mamãe
                                F#m
Fica de boa que seu filho vai chegar
                                  D
E se por acaso o meu velho perguntar
             E                    A
Fala que ta tudo sossegado e já cheguei
Acordes para:
    Colaboração e revisão:

    0 comentários

    mostrar mais comentários

    Conseguiu tocar?

    14 tocaram 1 ainda não

    Grave um vídeo tocando Oh Mamãe e mande pra gente!

    00:00 / 00:00
    outros vídeos desta música
    repetir qualidade Automático
    Outro vídeos desta música
    00:00 / 00:00
    Automático
    OK