Cifra Club

Aprenda

Procurando Por Você

Thiago e Filipe

Cifra: Principal (violão e guitarra)
tom: G
 Intro: G  D  C9  G  D  C9  D
E|-3-3-2-3-2--------|-3-2-3-2-----------|-------------------|
B|-----------3------|---------3---------|-0-3/5-------------|
G|------------------|-------------------|-------------------|
D|------------------|-------------------|-------------------|
A|------------------|-------------------|-------------------|
E|------------------|-------------------|-------------------|

E|-3-3-2-3-2--------|-3-2-3-2-----------|-------------------|
B|-----------3------|---------3---------|-0-3/5-0-5/7-------|
G|------------------|-------------------|-------------------|
D|------------------|-------------------|-------------------|
A|------------------|-------------------|-------------------|
E|------------------|-------------------|-------------------|

Primeira parte:
   G                      D
Estou vagando,   andando lentamente
   C9                   D
Olhando pra trás e lembrando da gente

         G                 D
Na madrugada fria  eu te disse adeus
    C9                    D
Gritei seu nome  e você não respondeu

        G            D
Eu te procurei,  corri atrás
      C9         D             G  D C9 D
Mais não te vi     nunca, nunca maaais

Refrão:
            G                    D
E quando o sol se pôr e o dia amanhecer
   C9      D                   G
Estarei só   procurando por você

 Solo: G  D  C9
E|-3-3-2-3-2--------|-3-2-3-2-----------|-------------------|
B|-----------3------|---------3---------|-0-3/5-------------|
G|------------------|-------------------|-------------------|
D|------------------|-------------------|-------------------|
A|------------------|-------------------|-------------------|
E|------------------|-------------------|-------------------|

(Primeira parte)

        G            D
Eu te procurei,  corri atrás
      C9         D             G  D C9 D
Mais não te vi     nunca, nunca maaais

Refrão:
            G                    D
E quando o sol se pôr e o dia amanhecer
   C9             D
Estarei só...  Estarei só...

            G                    D
E quando o sol se pôr e o dia amanhecer
   C9      D                   G  D  C9  G
Estarei só   procurando por você  êêêêê
Colaboração e revisão:
  • Thiago Souza
  • thiago
96 exibições
    • ½ Tom
    • A
    • Bb
    • B
    • C
    • Db
    • D
    • Eb
    • E
    • F
    • F#
    • G
    • Ab
  • Adicionar à lista

    0 comentários

    Ver todos os comentários

    Conseguiu tocar?

    1 Tocaram 0 Ainda não

    Grave um vídeo tocando Procurando Por Você e nos envie!

    00:00 / 00:00
    outros vídeos desta música
    repetir qualidade Automático
    Outros vídeos desta música
    00:00 / 00:00
    Automático

    Cifra Club Pro

    Aproveite o Cifra Club com benefícios exclusivos e sem anúncios
    Cifra Club Pro
    Aproveite o Cifra Club com benefícios exclusivos e sem anúncios
    OK