Cifra Club

A Amizade É Tudo

Thiaguinho

Cifra: Principal (violão e guitarra)
Selo Cifra Club: esta cifra foi revisada para atender aos critérios oficiais da nossa Equipe de Qualidade.
tom: C
[Intro] Cm7  Dm7(5-)  G7(13-)
        Cm7  Dm7(5-)  G7(4/9)

[Tab - Intro]

E|------------------------------------------|
B|------------------------------------------|
G|------------------------------------------|
D|------------------------------------------|
A|-5/6-5/6-5/6---3-5-6-5-3-1/3-1------------|
E|--------------------------------3---------|

E|------------------------------------------|
B|------------------------------------------|
G|------------------------------------------|
D|-3h5-3------------------------------------|
A|-------5/6-5/6----------------------------|
E|------------------------------------------|

E|------------------------------------------|
B|------------------------------------------|
G|------------------------------------------|
D|-------5-----3-----3---3/5----------------|
A|-3-5-6----6-----5----------5-6-7----------|
E|------------------------------------------|

[Primeira Parte]

C7M                    Am7
    Um sentimento natural
                    F7M
Que acontece com razão
   G7(4/9)     F/A
É Deus quem escolhe
  G/B     G7(4/9)  C7M(13-)
Quem vai se dar   bem
        C7M      Am7
A caminhada é igual
                      F7M
Seguindo a mesma direção
    G7(4/9)  F/A    G/B   Dm7  Am7
Pensando    juntos nós vamos além

[Segunda Parte]

          D7(9)   Gm7
Lágrimas na vitória
              E7(13-)     F7M
Sempre na derrota ou glória
   Em7          F7M
É luz na escuridão
      G7(4/9)  G#°    Am7
Somos um só   coração
             D7(9)   Gm7
Sempre vivo na memória
           F#7(11+)       F7M
Faz parte da minha história
      Em7         G#7M
Nada vai nos separar
      G7(4/9)
A amizade é tudo!

[Refrão]

C7M
É se dar sem esperar
 E7(13-)               F7M
Nada em troca dessa união
          Em7        G#7M
É ter alguém pra contar
      G7(4/9)
Na indecisão
 C7M
Nunca se desesperar
 E7(13-)                   F7M
Sempre ali pra estender a mão
   Em7           Am7
Maior valor não há
   G#7M
É feito irmão

C7M
É se dar sem esperar
 E7(13-)               F7M
Nada em troca dessa união
          Em7        G#7M
É ter alguém pra contar
      G7(4/9)
Na indecisão
 C7M
Nunca se desesperar
 E7(13-)                   F7M
Sempre ali pra estender a mão
   Em7           Am7
Maior valor não há
   G#7M
É feito irmão

( C9  G#7M(11+)  Am7(11)  G#7M(11+) )

[Tab - Interlúdio]

E|---------3---------3---------3---------3---|
B|-------3---------3---------3---------3-----|
G|-----5---------5---------5---------5-------|
D|---5---------5---------5---------5---------|
A|-3-----------------------------------------|
E|-----------4---------5---------4-----------|

[Primeira Parte]

C7M                    Am7
    Um sentimento natural
                    F7M
Que acontece com razão
   G7(4/9)     F/A
É Deus quem escolhe
  G/B     G7(4/9)  C7M(13-)
Quem vai se dar   bem
        C7M      Am7
A caminhada é igual
                      F7M
Seguindo a mesma direção
    G7(4/9)  F/A    G/B   Dm7  Am7
Pensando    juntos nós vamos além

[Segunda Parte]

          D7(9)   Gm7
Lágrimas na vitória
              E7(13-)     F7M
Sempre na derrota ou glória
   Em7          F7M
É luz na escuridão
      G7(4/9)  G#°    Am7
Somos um só   coração
             D7(9)   Gm7
Sempre vivo na memória
           F#7(11+)       F7M
Faz parte da minha história
      Em7         G#7M
Nada vai nos separar
      G7(4/9)
A amizade é tudo!

[Refrão]

C7M
É se dar sem esperar
 E7(13-)               F7M
Nada em troca dessa união
          Em7        G#7M
É ter alguém pra contar
      G7(4/9)
Na indecisão
 C7M
Nunca se desesperar
 E7(13-)                   F7M
Sempre ali pra estender a mão
   Em7           Am7
Maior valor não há
   G#7M
É feito irmão

C7M
Lá laiá laiá laiá
 E7(13-)             F7M
Lá laiá laiá laiá laiá
      Em7        G#7M
A amizade é tudo
      G7(4/9)
A amizade é tudo

C7M
Lá laiá laiá laiá
 E7(13-)             F7M
Lá laiá laiá laiá laiá
      Em7        G#7M
A amizade é tudo
      G7(4/9)
A amizade é tudo

C7M
Lá laiá laiá laiá
E7(13-)                F7M
Lá laiá laiá laiá laiá
     Em7         Am7
A amizade é tudo
    G7(4/9)
A amizade é tudo

[Final] C9  G#7M(11+)  Am7(11)  G#7M(11+)   
        C9  G#7M(11+)  Am7(11)  G#7M(11+)
Outros vídeos desta música
    237.740 exibições
      • ½ Tom
      • A
      • Bb
      • B
      • C
      • Db
      • D
      • Eb
      • E
      • F
      • F#
      • G
      • Ab
    • Adicionar à lista

    Afinação da cifra

    Afinador online

      0 comentários

      Ver todos os comentários

      Entre para o Cifra Club PRO

      Tenha acesso a benefícios exclusivos no App e no Site

      • Chega de anúncios

      • Badges exclusivas

      • Mais recursos no app do Afinador

      • Atendimento Prioritário

      • Aumente seu limite de lista

      • Ajude a produzir mais conteúdo

      Cifra Club Pro

      Aproveite o Cifra Club com benefícios exclusivos e sem anúncios
      Cifra Club Pro
      Aproveite o Cifra Club com benefícios exclusivos e sem anúncios
      OK