Cifra Club

A Amizade É Tudo

Thiaguinho

Cifra: Principal (violão e guitarra)
tom: C
[Intro] Cm7  Dm7(5-)  G7(13-)  Cm7  Dm7(5-)  G7(4/9)

E|--------------------------------------------------|
B|--------------------------------------------------|
G|--------------------------------------------------|
D|-------------------------------------3h5----------|
A|5s6-5s6-5s6-----3-5-6-5-3-1s3-1-----------6-5s6---|
E|----------------------------------3---------------|

E|--------------------------------------------------|
B|--------------------------------------------------|
G|--------------------------------------------------|
D|---------5-----3--------3------3h5----------------|
A|3--5--6-----6--------5--------------5--6--7-------|
E|--------------------------------------------------|

[Primeira Parte]

C7M                   Am7(11)
Um sentimento natural
                      F7M
Que acontece com razão
  G7(4/9)       F/A
É Deus quem escolhe
G/B      G7(4/9)      C7M(13-)
Quem vai se dar bem
       C7M          Am7(11)
A caminhada é igual
                        F7M
Seguindo a mesma direção
   G7(4/9)   F/A   G/B     Dm7    Am7(11)
Pensando juntos nós vamos além

[Segunda Parte]

        D7(9)       Gm7
Lágrimas na vitória
           F#7(11+)         F7M
Sempre na derrota ou glória
      Em7          F7M
É luz na escuridão
     G7(4/9)    G#°   Am7(11)
Somos um só coração
           D7(9)      Gm7
Sempre vivo na memória
             F#7(11+)       F7M
Faz parte da minha história
     Em7          G#7M
Nada vai nos separar
    G7(4/9)
A amizade é tudo!

[Refrão]

C7M
É se dar sem esperar
F#7(11+)                 F7M
Nada em troca dessa união
         Em7       G#7M
É ter alguém pra contar
     G7(4/9)
Na indecisão
C7M
Nunca se desesperar
F#7(11+)                     F7M
Sempre ali pra estender a mão
  Em7             Am7(11)
Maior valor não há
    G#7M
É feito irmão

C7M
É se dar sem esperar
F#7(11+)                 F7M
Nada em troca dessa união
         Em7       G#7M
É ter alguém pra contar
     G7(4/9)
Na indecisão
C7M
Nunca se desesperar
F#7(11+)                     F7M
Sempre ali pra estender a mão
  Em7             Am7(11)
Maior valor não há
    G#7M
É feito irmão

( C9   G#7M(11+)   Am7(11)   G#7M(11+) )

E|---------3---------3---------3---------3----|
B|-------3---------3---------3---------3------|
G|-----5---------5---------5---------5--------|
D|---5---------5---------5---------5----------|
A|-3------------------------------------------|
E|-----------4---------5---------4------------|

[Primeira Parte]

C7M                   Am7(11)
Um sentimento natural
                      F7M
Que acontece com razão
  G7(4/9)       F/A
É Deus quem escolhe
G/B      G7(4/9)      C7M(13-)
Quem vai se dar bem
       C7M          Am7(11)
A caminhada é igual
                        F7M
Seguindo a mesma direção
   G7(4/9)   F/A   G/B     Dm7    Am7(11)
Pensando juntos nós vamos além

[Segunda Parte]

        D7(9)       Gm7
Lágrimas na vitória
           F#7(11+)         F7M
Sempre na derrota ou glória
      Em7          F7M
É luz na escuridão
     G7(4/9)    G#°   Am7(11)
Somos um só coração
           D7(9)      Gm7
Sempre vivo na memória
             F#7(11+)       F7M
Faz parte da minha história
     Em7          G#7M
Nada vai nos separar
    G7(4/9)
A amizade é tudo!

[Refrão]

C7M
É se dar sem esperar
F#7(11+)                 F7M
Nada em troca dessa união
         Em7       G#7M
É ter alguém pra contar
     G7(4/9)
Na indecisão
C7M
Nunca se desesperar
F#7(11+)                     F7M
Sempre ali pra estender a mão
  Em7             Am7(11)
Maior valor não há
    G#7M
É feito irmão

C7M
Lá laiá laiá laiá
F#7(11+)                F7M
Lá laiá laiá laiá laiá
     Em7         G#7M
A amizade é tudo
    G7(4/9)
A amizade é tudo

C7M
Lá laiá laiá laiá
F#7(11+)                F7M
Lá laiá laiá laiá laiá
     Em7         Am7(11)
A amizade é tudo
    G#7M
A amizade é tudo

( C9  G#7M(11+)  Am7(11)  G#7M(11+) )  
( C9  G#7M(11+)  Am7(11)  G#7M(11+) ) 

E|---------3---------3---------3---------3----|
B|-------3---------3---------3---------3------|
G|-----5---------5---------5---------5--------|
D|---5---------5---------5---------5----------|
A|-3------------------------------------------|
E|-----------4---------5---------4------------|
00:00 / 00:00
Outros vídeos desta música
Repetir
Outros vídeos desta música
Composição de Rodriguinho / Thiaguinho
Colaboração e revisão:
165.656 exibições
    • ½ Tom
    • A
    • Bb
    • B
    • C
    • Db
    • D
    • Eb
    • E
    • F
    • F#
    • G
    • Ab
  • Adicionar à lista

    0 comentários

    Ver todos os comentários

    Conseguiu tocar?

    9 Tocaram 1 Ainda não

    Grave um vídeo tocando A Amizade É Tudo e nos envie!

    Entre para oCifra Club PRO

    Tenha acesso a benefícios exclusivos no App e no Site

    • Chega de anúncios

    • Prioridade de compra em lançamentos

    • Mais recursos no app do Afinador

    • Atendimento Prioritário

    • Descontos nos produtos Cifra Club

    • Ajude a produzir mais conteúdo

    00:00 / 00:00

    Cifra Club Pro

    Aproveite o Cifra Club com benefícios exclusivos e sem anúncios
    Cifra Club Pro
    Aproveite o Cifra Club com benefícios exclusivos e sem anúncios
    OK