Cifra Club

Cancun

Thiaguinho

Cifra: Principal (violão e guitarra)
exibições 70.621
Tom: G
 
E|-4--7-----------------------5--4--7--------------------4-----4--|
B|-------3--5-----3--------5-----------3--5-----3-----------3-----| 
G|-------------4-----2--4--------------------4-----2--4-----------| 
D|----------------------------------------------------------------|
A|----------------------------------------------------------------|
E|----------------------------------------------------------------|    

E|----4-----4--5--5-----------------------------------------------| 
B|-3-----3--------------------------------------------------------|
G|----------------------------------------------------------------|
D|----------------------------------------------------------------|
A|----------------------------------------------------------------|
E|----------------------------------------------------------------|

D7sus4
E se daqui pra frente    
                  G7M          ( D7sus4 )
A gente prometesse não brigar     
D7sus4
E sendo diferente    
                G7M           ( G#m7 )
Pegar um tempo livre e viajar    
Am7                  D7/9
Nenhum de nós pode atender o celular    
Am7                      D7/9
Se alguém ligar a gente finge que não vê    
Bm7                                Em7
Vou espalhar pro mundo que eu vou casar    
Em7
E todo mundo vai saber quem é você    
Am7                       D7/9(sus4)
É só pedir pra qualquer um eternizar    
                     G7M           ( G#m7 )
Fotografando esse momento de lazer    
Am7               D7/9                  Am7
Já reservei um lugarzinho em frente ao mar    
Am7                     D7/9
Juntei uma grana, me apertei isso é comum    
Bm7                                 Em7
Mas não é hora de parar pra reclamar (ohhhh, ohhh)    
D7/9(sus4)                G7M           ( G#m7 )
Porque a passagem tá comprada pra Cancun    
   
Refrão:

         Am7
Pode se arrumar    
                                  D7/9
Não precisa muita coisa porque a gente vai ficar sem roupa    
          Bm7                     Em7sus4       Em7(11)
1, 2, 3 e já, me diz se vai ou se não vai nesse avião    
 Am7
Se insinuar    
Am7                                   D7sus4
Que vai negar não vou deixar você falar    
      D7/9                      G7M
E vou correndo pra beijar a sua boca

Refrão:

   G#m7 Am7
Eu quero ficar    
Am7                           D7/9
A noite inteira coladinho com você fazendo amor    
                Bm7
Quando o sol brilhar vou te servir café na cama    
   E7sus4        Em7(11)
E dobrar o cobertor    
Am7                                  D7sus4
Pode acreditar daqui pra frente a felicidade    
          D7/9         G7M
Não tem hora pra acabar 
 
Vocalização: G7M D/F# Bm7(5b) Em7(9-) Am7 Am7+ Cm6 D7/9(sus4)
             G7M D/F# Bm7(5b) Em7(9-) Am7 Am7+ Cm6 D7/9(sus4) D7sus4
Acordes para:
    Composição: Billy SP / Pezinho / Tiee Colaboração e revisão:

    0 comentários

    mostrar mais comentários

    Conseguiu tocar?

    5 tocaram 0 ainda não

    Grave um vídeo tocando Cancun e mande pra gente!

    00:00 / 00:00
    outros vídeos desta música
    repetir qualidade Automático
    Outro vídeos desta música
    00:00 / 00:00
    Automático
    OK