Cifra Club

Got To Give It Up

Thin Lizzy

Cifra: Principal (violão e guitarra)
Tom: G
Got to give it up
Album: Black Rose
Tabbed by: Lorcan Pigott-Dix

Chorus

Guitar 1
|--------|--------|---------|
|--------|--------|---------|
|--------|--------|---------|
|--------|--------|---------|
|777-7-7-|7--5577-|---------|
|--------|-------5|---8-----|

Guitar 2
|--------|--------|---------|
|--------|--------|---------|
|--------|--------|---------|
|--------|--------|---------|
|777-7-7-|7--5577-|---7-----|
|--------|-------5|---------|


Verse
|--------|--------|---------|--------|--------|--------|--------|--------|--
|--------|--------|---------|--------|--------|--------|--------|--------|--
|--------|--------|---------|--------|--------|--------|--------|--------|--
|--------|--------|---------|--------|--------|--------|--------|--------|--
|7-------|5---7---|---------|--------|--------|--------|5---7---|--------|--
|--------|--------|----5----|----8---|0-------|3-------|--------|5-------|8-


exibições 427
Acordes para:

    0 comentários

    mostrar mais comentários

    Conseguiu tocar?

    0 tocaram 0 ainda não

    Grave um vídeo tocando Got To Give It Up e mande pra gente!

    00:00 / 00:00
    outros vídeos desta música
    repetir qualidade Automático
    Outros vídeos desta música
    00:00 / 00:00
    Automático
    OK