Cifra Club

Slow Motion

Third Eye Blind

Cifra: Principal (violão e guitarra)
Selo Cifra Club: esta cifra foi revisada para atender aos critérios oficiais da nossa Equipe de Qualidade.
tom: D
Eu tirei essa música de uma versão acústica sem o teclado batera e baixo onde muda muita pouca coisa, 
é quase idêntica à original. É só ouvir pra pegar o tempo.

Introdução
   D             A    G           Em
E|------3h2---0-------------x-x-x---------------2----------|
B|----3-----3-----2-2-------x-x-x---------5---5---5--------|
G|----------------2-2-------x-x-x-------4---4--------------|
D|--0-------------2-2-------x-x-x--------------------------|
A|--------------------------x-x-x--0-2---------------------|
E|---------------------0-3--x-x-x--------------------------|

E|------3h2---0-------------x-x-x------------------------x-|
B|--3-3-----3-----2-2-------x-x-x---------5---8-7~-----x-x-|
G|----------------2-2-------x-x-x-------4---4-7-7~-----x-x-|
D|--0-------------2-2-------x-x-x---------------7~-----x-x-|
A|--------------------------x-x-x--0-2---------------------|
E|---------------------0-3--x-x-x--------------------------|

Verso 1

E|------2-------------x-x-x---------0-----0-3h0--------|
B|------3---2-2-------x-x-x-------------3--------------|
G|------2---2-2-------x-x-x-------4---4----------------| 1X
D|--0-------2-2-------x-x-x----------------------------|
A|--------------------x-x-x--0-2-----------------------|
E|---------------0-3--x-x-x----------------------------|

E|------3h2---0-------------x-x-x---------0-----0-3h0--|
B|--3-3-----3-----2-2-------x-x-x-------------3--------|
G|----------------2-2-------x-x-x-------4---4----------| 2X
D|--0-------------2-2-------x-x-x----------------------|
A|--------------------------x-x-x--0-2-----------------|
E|---------------------0-3--x-x-x----------------------|

E|------3h2---0-------------x-x-x---------0-----0p3----|
B|--3-3-----3-----2-2-------x-x-x-------------3-----2--|
G|----------------2-2-------x-x-x-------4---4-------2--| 1X
D|--0-------------2-2-------x-x-x-------------------2--|
A|--------------------------x-x-x--0-2-----------------|
E|---------------------0-3--x-x-x----------------------|

Refrão
        D           A           Em
E|-------2-2-2-2-2---0-0-0-0-0---0-0-0-0-0-x---|
B|--3-3--3-3-3-3-3---2-2-2-2-2---0-0-0-0-0-x---|
G|-------2-2-2-2-2---2-2-2-2-2---0-0-0-0-0-x---|
D|-------0-0-0-0-0---2-2-2-2-2---2-2-2-2-2-x---|
A|--5-5--------------------------2-2-2-2-2-x---|
E|-----------------------------------------x---|
        D           A           Em
E|-------2-2-2-2-2---0-0-0-0-0---0-0-0-0-0--------9p10-|
B|--3-3--3-3-3-3-3---2-2-2-2-2---0-0-0-0-0---7-10-10---|
G|-------2-2-2-2-2---2-2-2-2-2---0-0-0-0-0-------------|
D|-------0-0-0-0-0---2-2-2-2-2---2-2-2-2-2-------------|
A|--5-5--------------------------2-2-2-2-2-------------|
E|-----------------------------------------------------|
        D           A           Em
E|-------2-2-2-2-2---0-0-0-0-0---2--------------------------|
B|--3-3--3-3-3-3-3---2-2-2-2-2---0---3-3--(3)--3-------x-12-|
G|-------2-2-2-2-2---2-2-2-2-2---0-------0---0---------x-12-|
D|-------0-0-0-0-0---2-2-2-2-2---2---------------------x-12-|
A|--5-5--------------------------2--------------------------|
E|------------------------------------2----------2~---------|

Verso 2

E|------2-------------x-x-x---------0-----0-3h0--------|
B|------3---2-2-------x-x-x-------------3--------------|
G|------2---2-2-------x-x-x-------4---4----------------| 1X
D|--0-------2-2-------x-x-x----------------------------|
A|--------------------x-x-x--0-2-----------------------|
E|---------------0-3--x-x-x----------------------------|

E|------3h2---0-------------x-x-x---------0-----0-3h0--|
B|--3-3-----3-----2-2-------x-x-x-------------3--------|
G|----------------2-2-------x-x-x-------4---4----------| 2X
D|--0-------------2-2-------x-x-x----------------------|
A|--------------------------x-x-x--0-2-----------------|
E|---------------------0-3--x-x-x----------------------|

E|------3h2---0---------3-3----|
B|--3-3-----3-----2-2---3-3----|
G|----------------2-2---0-0----| 1X
D|--0-------------2-2---x-x----|
A|----------------------2-2----|
E|----------------------3-3----|

Refrão
        D           A           Em
E|-------2-2-2-2-2---0-0-0-0-0---0-0-0-0-0-x---|
B|--3-3--3-3-3-3-3---2-2-2-2-2---0-0-0-0-0-x---|
G|-------2-2-2-2-2---2-2-2-2-2---0-0-0-0-0-x---|
D|-------0-0-0-0-0---2-2-2-2-2---2-2-2-2-2-x---|
A|--5-5--------------------------2-2-2-2-2-x---|
E|-----------------------------------------x---|
       
        D           A           Em
E|-------2-2-2-2-2---0-0-0-0-0---0-0-0-0-0--------9p10-|
B|--3-3--3-3-3-3-3---2-2-2-2-2---0-0-0-0-0---7-10-10---|
G|-------2-2-2-2-2---2-2-2-2-2---0-0-0-0-0-------------|
D|-------0-0-0-0-0---2-2-2-2-2---2-2-2-2-2-------------|
A|--5-5--------------------------2-2-2-2-2-------------|
E|-----------------------------------------------------|

E|-------2-2-2-2-2---0-0-0-0-0---2------2-2--|
B|--3-3--3-3-3-3-3---2-2-2-2-2---0---3----3--|
G|-------2-2-2-2-2---2-2-2-2-2---0-----0-----|
D|-------0-0-0-0-0---2-2-2-2-2---2-----------|
A|--5-5--------------------------2-----------|
E|------------------------------------2------|

Verso 3
   G5       A5       F#5      G5
E|--------------------------------------|
B|--------------------------------------|
G|--------------------------------------|
D|--5--5-5---7--7-7---4--4-4---5--5-5---|
A|--5--5-5---7--7-7---4--4-4---5--5-5---|
E|--3--3-3---5--5-5---2--2-2---3--3-3---|
   G5       A5       F#5      F#5
E|--------------------------------------|
B|--------------------------------------|
G|--------------------------------------|
D|--5--5-5---7--7-7---4--4-4---4--4-4---|
A|--5--5-5---7--7-7---4--4-4---4--4-4---|
E|--3--3-3---5--5-5---2--2-2---2--2-2---|
   G5       A5       Em         G5        A5
E|---------------------------------------------|
B|---------------------------------------------|
G|---------------------------------------------|
D|--5--5-5---7--7-7---2-2-2-2-2--5x5x5x5x--7---|
A|--5--5-5---7--7-7---2-2-2-2-2--5x5x5x5x--7---|
E|--3--3-3---5--5-5---0-0-0-0-0--3x3x3x3x--5---|

E|------10----10----10----10----10----9~-------10----10----10----|
B|----10----10----10----10----10----10-------10----10----10----2-|
G|--11----11----11----11----11----11-------11----11----11------2-|
D|-------------------------------------------------------------2-|
A|---------------------------------------------------------------|
E|---------------------------------------------------------------|

Verso 4
   D             A    G           Em
E|------3h2---0-------------x-x-x---------------2------|
B|----3-----3-----2-2-------x-x-x---------5---5---5----|
G|----------------2-2-------x-x-x-------4---4----------|
D|--0-------------2-2-------x-x-x----------------------|
A|--------------------------x-x-x--0-2-----------------|
E|---------------------0-3--x-x-x----------------------|

E|------3h2---0-------------x-x-x---------0-----0-3h0--|
B|--3-3-----3-----2-2-------x-x-x-------------3--------|
G|----------------2-2-------x-x-x-------4---4----------|
D|--0-------------2-2-------x-x-x----------------------|
A|--------------------------x-x-x--0-2-----------------|
E|---------------------0-3--x-x-x----------------------|

E|------3h2---0-------------x-x-x--0---|
B|--3-3-----3-----2-2-------x-x-x--0---|
G|----------------2-2-------x-x-x--0---|
D|--0-------------2-2-------x-x-x--2---|
A|--------------------------x-x-x--2---|
E|---------------------0-3--x-x-x--0---|

Refrão
        D           A           Em
E|-------2-2-2-2-2---0-0-0-0-0---0-0-0-0-0-x---|
B|--3-3--3-3-3-3-3---2-2-2-2-2---0-0-0-0-0-x---|
G|-------2-2-2-2-2---2-2-2-2-2---0-0-0-0-0-x---|
D|-------0-0-0-0-0---2-2-2-2-2---2-2-2-2-2-x---|
A|--5-5--------------------------2-2-2-2-2-x---|
E|-----------------------------------------x---|

      D           A           Em
E|-----2-2-2-2-2---0-0-0-0-0---0-0-0-0-0----|
B|--3--3-3-3-3-3---2-2-2-2-2---0-0-0-0-0----|
G|-----2-2-2-2-2---2-2-2-2-2---0-0-0-0-0----|
D|-----0-0-0-0-0---2-2-2-2-2---2-2-2-2-2----|
A|--5--------------------------2-2-2-2-2----|
E|------------------------------------------|
   G                A              D
E|----3---3---3---3----0---0---0----2-|
B|----3---3---3---3----2---2---2----3-|
G|--0-0-0-0-0-0-0-0--2-2-2-2-2-2----2-|
D|--x-x-x-x-x-x-x-x--2-2-2-2-2-2----0-|
A|--2-2-2-2-2-2-2-2--0-0-0-0-0-0------|
E|--3-3-3-3-3-3-3-3-------------------|


Verso 1
Miss Jones taught me english 
But I think I just shot her son 
Cause he owed me money 
With a bullet in the chest you can not run 
Now he’s bleeding in a vacant lot 
The one in the summer where we used to smoke pot 
I guess I didn’t mean it 
But man you shoulda seen it 
His flesh explode 

Refrão
Slow motion see me let go 
We tend to die young 
Slow motion see me let go 
What a brother knows 
Slow motion see me let go 

Verso 2
Now the cops will get me 
But girl if you will let me 
I’ll take your pants off 
I got a little bit of blow we could both get off 
Later bathing in the afterglow 
Two lines of coke I cut with Drano 
And her nose starts to bleed 
A most beautiful ruby red 

Refrão
Slow motion see me let go 
We’ll remember these days 
Slow motion see me let go 
Urban life decay 
Slow motion see me let go 

Verso 3
And at home my sister’s eating paint chips again 
Maybe that’s why she’s insane 
I shut the door to the moaning 
And I shoot smack in veins 
Wouldn’t you? 
See my neighbor’s beating his wife 
Because he hates his life 
There’s a knock to his fist as he swings 
Oh man what a beautiful thing 

And death slides close to me 
Won’t grow old to be 
A junkie wino creep 

Verso 4
Hollywood glamorized my wrath 
I’m a young urban psychopath 
I incite murder for your entertainment 
Cause I needed the money, what’s your excuse? 
The joke’s on you 

Refrão
Slow motion see me let go 
Oh yeah 
Slow motion see me let go 
ohohohoh uhmhuhmuhm
Outros vídeos desta música
    2.627 exibições
      • ½ Tom
      • A
      • Bb
      • B
      • C
      • Db
      • D
      • Eb
      • E
      • F
      • F#
      • G
      • Ab
    • Adicionar à lista

    Afinação da cifra

    Afinador online

      0 comentários

      Ver todos os comentários

      Conseguiu tocar?

      0Tocaram0Ainda não

      Grave um vídeo tocando Slow Motion e nos envie!

      Toque também

      1. Imagem do artista Goo Goo DollsIris Goo Goo Dolls
      2. Imagem do artista Matchbox TwentyUnwell Matchbox Twenty
      3. Imagem do artista Gin BlossomsFollow you down Gin Blossoms
      4. Imagem do artista EverclearSanta Monica Everclear

      Entre para o Cifra Club PRO

      Tenha acesso a benefícios exclusivos no App e no Site

      • Chega de anúncios

      • Badges exclusivas

      • Mais recursos no app do Afinador

      • Atendimento Prioritário

      • Aumente seu limite de lista

      • Ajude a produzir mais conteúdo

      Cifra Club Pro

      Aproveite o Cifra Club com benefícios exclusivos e sem anúncios
      Cifra Club Pro
      Aproveite o Cifra Club com benefícios exclusivos e sem anúncios
      OK