Cifra Club

Human Race

Three Days Grace

Cifra: Principal (violão e guitarra)
Tom: G
Intro:

E|---------------------------------------------------------------------------|
B|---------------------------------------------------------------------------|
G|---------------------------------------------------------------------------|
D|-5~----8~----3~----1~----5~----8~----3~----7~------------------------------|
A|-5~----8~----3~----1~----5~----8~----3~----7~------------------------------|
D|-5~----8~----3~----1~----5~----8~----3~----7~------------------------------|

Verso 1:

E|---------------------------------------------------------------------------|
B|---------------------------------------------------------------------------|
G|---------------------------------------------------------------------------|
D|-0~---0~---10/0~----0~--------------8~----5~----5~-------------------------|
A|-0~---0~---10/0~----0~--------------8~----5~----5~-------------------------|
D|-0~---0~---10/0~----0~----0-10-8~---8~----5~----5~----10-8-7-8~------------|

E|---------------------------------------------------------------------------|
B|---------------------------------------------------------------------------|
G|---------------------------------------------------------------------------|
D|-0~---0~---3/0----0~--------------8~----5~----5~---------------------------|
A|-0~---0~---3/0----0~--------------8~----5~----5~---------------------------|
D|-0~---0~---3/0----0~----0-10-8~---8~----5~----5~---------------------------|

Refrão 1:

E|---------------------------------------------------------------------------|
B|---------------------------------------------------------------------------|
G|---------------------------------------------------------------------------|
D|-7-0~-----------------0~---2~---3~---5~---8~-------------------------------|
A|-7-0~-----------------0~---2~---3~---5~---8~------5------------------------|
D|-7-0~------10-8-7-8-7-0~---2~---3~---5~---8~--------8-7-8-5~----10-8-7-8~--|

E|---------------------------------------------------------------------------|
B|---------------------------------------------------------------------------|
G|------15-14~-------15-14~--------15-14~------------------------------------|
D|---12-----------12-----------12-----------12~------------------------------|
A|---------------------------------------------------------------------------|
D|---------------------------------------------------------------------------|

Verso 2:

E|---------------------------------------------------------------------------|
B|---------------------------------------------------------------------------|
G|---------------------------------------------------------------------------|
D|-0~---0~---10-0~---0~-------------8~---10-5~---5~--------------------------|
A|-0~---0~---10-0~---0~-------------8~---10-5~---5~--------------------------|
D|-0~---0~---10-0~---0~---0-10-8----8~---10-5~---5~----10-8-7-8~-------------|

E|---------------------------------------------------------------------------|
B|---------------------------------------------------------------------------|
G|---------------------------------------------------------------------------|
D|-0~---0~---10-0~---0~-------------8~---10-5~---5~--------------------------|
A|-0~---0~---10-0~---0~-------------8~---10-5~---5~--------------------------|
D|-0~---0~---10-0~---0~---0-10-8---8~----10-5~---5~--------------------------|

Refrão 2:

E|---------------------------------------------------------------------------|
B|---------------------------------------------------------------------------|
G|---------------------------------------------------------------------------|
D|-5~----8~----3~----1~----5~----8~----3~----7~------------------------------|
A|-5~----8~----3~----1~----5~----8~----3~----7~------------------------------|
D|-5~----8~----3~----1~----5~----8~----3~----7~------------------------------|

Ponte:

E|---------------------------------------------------------------------------|
B|---------------------------------------------------------------------------|
G|---------------------------------------------------------------------------|
D|-0~----0~----10-0~--2~--3~--5~-8~------------------------------------------|
A|-0~----0~----10-0~--2~--3~--5~-8~-----5------------------------------------|
D|-0~----0~----10-0~--2~--3~--5~-8~-------8-7-8-5~----10-8-7-8~--------------|

Refrão 3: (4x) "Solo"

E|---------------------------------------------------------------------------|
B|---------------------------------------------------------------------------|
G|---------------------------------------------------------------------------|
D|-5~----8~----3~----1~----5~----8~----3~----7~------------------------------|
A|-5~----8~----3~----1~----5~----8~----3~----7~------------------------------|
D|-5~----8~----3~----1~----5~----8~----3~----7~------------------------------|
exibições 2.893
Acordes para:
    Composição: Matt Walst Colaboração e revisão:
    • Paulo Henrique

    0 comentários

    mostrar mais comentários

    Conseguiu tocar?

    2 tocaram 0 ainda não

    Grave um vídeo tocando Human Race e mande pra gente!

    00:00 / 00:00
    outros vídeos desta música
    repetir qualidade Automático
    Outros vídeos desta música
    00:00 / 00:00
    Automático
    OK