Cifra Club

Aprenda

Never Too Late

Three Days Grace

Cifra: Principal (violão e guitarra)
tom: Dm
Afinação: D A D G B E

[Intro]

Parte 1 de 2

E|----------------------------------------------------|
B|----------------------------------------------------|
G|----------------------------------------------------|
D|-----10---------10-8-7-0-------10---------10-8-7-0--|
A|---8----8-----0--------------8----8-----0-----------|
D|-8--------0----------------8--------0---------------|

Parte 2 de 2

E|----------------------------------------------------|
B|----------------------------------------------------|
G|----------------------------------------------------|
D|-----10--------10-8-7-0------10-----10--------------|
A|---8----8----0-------------7------7-10--------------|
D|-8--------0--------------7----------10--------------|

[Primeira Parte]

Bb5  D5                   Bb5
   This world will never be  
  D5
What I expected
Bb5  D5                A5  
     And if I don't belong 
  C5
Who would have guessed it

Parte 1 de 2

E|----------------------------------------------------|
B|-------13------------13-----------------------------|
G|------------------------15-14-----------------------| (2x)
D|----15-----15-----12----------15--------------------|
A|-13-------------------------------------------------|
E|--------------0-------------------------------------|

Parte 2 de 2

E|----------------------------------------------------|
B|-------13------------13------------------13-----13--|
G|------------------------15-14-------------------12--|
D|----15-----15-----12----------15------14-----14-10--|
A|-13--------------------------------12---------------|
E|--------------0-------------------------------------|

Bb5  D5              Bb5 
  I will not leave alone  
D5                Bb5
Everything that I own
 D5                         A5
To make you feel like it's not too late
C5
It's never too late

[Refrão]

Parte 1 de 5

E|-17~~--------15~~--------17~~--------15~~-----------|
B|-------15~~--------13~~--------15~~--------13~~-----|
G|----------------------------------------------------|
D|----------------------------------------------------|
A|----------------------------------------------------|
E|----------------------------------------------------|

Parte 2 de 5

E|-17-13----17-13----17-13----17-13----17-13----------|
B|-------15-------15-------15-------15-------15-------|
G|----------------------------------------------------|
D|----------------------------------------------------|
A|----------------------------------------------------|
E|----------------------------------------------------|

Parte 3 de 5

E|-17------------------17---------------15-------15---|
B|----17-13----17-13-------17-13-17-13------17-13-----|
G|----------14-------14-------------------------------|
D|----------------------------------------------------|
A|----------------------------------------------------|
E|----------------------------------------------------|

Parte 4 de 5

E|-17-13----17-13----17-13----17-13----17-13----------|
B|-------15-------15-------15-------15-------15-------|
G|----------------------------------------------------|
D|----------------------------------------------------|
A|----------------------------------------------------|
E|----------------------------------------------------|

Parte 5 de 5

E|-17-------------------------------------------------|
B|----17-13----17-13----17~---------------------------|
G|----------14-------14-------------------------------|
D|----------------------------------------------------|
A|----------------------------------------------------|
E|----------------------------------------------------|

D5  Bb5           A5 
    Even if I say
C5
It'll be alright
D5  Bb5                   
  Still I hear you say
A5            C5
  You want to end your life
D5           Bb5                   
   Now and again we try
A5          C5
  To just stay alive
Bb5            D5                 
  Maybe we'll turn it all around 
             A5         
'Cause it's not too late
C5
  It's never too late

[Segunda Parte]

Parte 1 de 2

E|----------------------------------------------------|
B|-------13------------13-----------------------------|
G|------------------------15-14-----------------------| (2x)
D|----15-----15-----12----------15--------------------|
A|-13-------------------------------------------------|
E|--------------0-------------------------------------|

Parte 2 de 2

E|----------------------------------------------------|
B|-------13------------13------------------13-----13--|
G|------------------------15-14-------------------12--|
D|----15-----15-----12----------15------14-----14-10--|
A|-13--------------------------------12---------------|
E|--------------0-------------------------------------|

Bb5  D5               Bb5
    No one will ever see 
  D5
This side reflected
Bb5  D5               A5
     And if there's something wrong 
  C5
Who would have guessed it

Bb5  D5                Bb5   
     And I have left alone 
D5                Bb5
Everything that I own
 D5                         A5
To make you feel like it's not too late
C5
It's never too late

[Refrão]

Parte 1 de 5

E|-17~~--------15~~--------17~~--------15~~-----------|
B|-------15~~--------13~~--------15~~--------13~~-----|
G|----------------------------------------------------|
D|----------------------------------------------------|
A|----------------------------------------------------|
E|----------------------------------------------------|

Parte 2 de 5

E|-17-13----17-13----17-13----17-13----17-13----------|
B|-------15-------15-------15-------15-------15-------|
G|----------------------------------------------------|
D|----------------------------------------------------|
A|----------------------------------------------------|
E|----------------------------------------------------|

Parte 3 de 5

E|-17------------------17---------------15-------15---|
B|----17-13----17-13-------17-13-17-13------17-13-----|
G|----------14-------14-------------------------------|
D|----------------------------------------------------|
A|----------------------------------------------------|
E|----------------------------------------------------|

Parte 4 de 5

E|-17-13----17-13----17-13----17-13----17-13----------|
B|-------15-------15-------15-------15-------15-------|
G|----------------------------------------------------|
D|----------------------------------------------------|
A|----------------------------------------------------|
E|----------------------------------------------------|

Parte 5 de 5

E|-17-------------------------------------------------|
B|----17-13----17-13----17~---------------------------|
G|----------14-------14-------------------------------|
D|----------------------------------------------------|
A|----------------------------------------------------|
E|----------------------------------------------------|

D5  Bb5           A5 
    Even if I say
C5
It'll be alright
D5  Bb5                   
  Still I hear you say
A5            C5
  You want to end your life
D5           Bb5                   
   Now and again we try
A5          C5
  To just stay alive
Bb5            D5                 
  Maybe we'll turn it all around 
             A5         
'Cause it's not too late
C5
  It's never too late

[Ponte]

     Bb5           F5    C5
The world we knew won't come back
     Bb5             A5    C5
The time we've lost can't get back
     Bb5         F5    C5       Bb5  A5  C5
The life we had won't be ours again

[Primeira Parte]

E|----------------------------------------------------|
B|----------------------------------------------------|
G|----------------------------------------------------|
D|-----10----12-------10----12-------10----12---------|
A|---8--------------8--------------8------------10----|
E|-8-------0------8-------0------8-------0------10----|

Bb5  D5                   Bb5
   This world will never be  
  D5
What I expected
Bb5  D5                C5  
     And if I don't belong 

[Refrão]

Parte 1 de 5

E|-17~~--------15~~--------17~~--------15~~-----------|
B|-------15~~--------13~~--------15~~--------13~~-----|
G|----------------------------------------------------|
D|----------------------------------------------------|
A|----------------------------------------------------|
E|----------------------------------------------------|

Parte 2 de 5

E|-17-13----17-13----17-13----17-13----17-13----------|
B|-------15-------15-------15-------15-------15-------|
G|----------------------------------------------------|
D|----------------------------------------------------|
A|----------------------------------------------------|
E|----------------------------------------------------|

Parte 3 de 5

E|-17------------------17---------------15-------15---|
B|----17-13----17-13-------17-13-17-13------17-13-----|
G|----------14-------14-------------------------------|
D|----------------------------------------------------|
A|----------------------------------------------------|
E|----------------------------------------------------|

Parte 4 de 5

E|-17-13----17-13----17-13----17-13----17-13----------|
B|-------15-------15-------15-------15-------15-------|
G|----------------------------------------------------|
D|----------------------------------------------------|
A|----------------------------------------------------|
E|----------------------------------------------------|

Parte 5 de 5

E|-17-------------------------------------------------|
B|----17-13----17-13----17~---------------------------|
G|----------14-------14-------------------------------|
D|----------------------------------------------------|
A|----------------------------------------------------|
E|----------------------------------------------------|

D5  Bb5           A5 
    Even if I say
C5
It'll be alright
D5  Bb5                   
  Still I hear you say
A5            C5
  You want to end your life
D5           Bb5                   
   Now and again we try
A5          C5
  To just stay alive
Bb5            D5                 
  Maybe we'll turn it all around 
             A5         
'Cause it's not too late
C5
  It's never too late

E|-17~~--------15~~--------17~~--------15~~-----------|
B|-------15~~--------13~~--------15~~--------13~~-----|
G|----------------------------------------------------|
D|----------------------------------------------------|
A|----------------------------------------------------|
E|----------------------------------------------------|

Bb5            D5                 
  Maybe we'll turn it all around 
             A5         
'Cause it's not too late
C5
  It's never too late
                Bb5   D5 
(It's never too late)
      A5           
It's not too late
C5
  It's never too late

[Final]

Parte 1 de 2

E|----------------------------------------------------|
B|----------------------------------------------------|
G|----------------------------------------------------|
D|-----10---------10-8-7-0-------10---------10-8-7-0--|
A|---8----8-----0--------------8----8-----0-----------|
D|-8--------0----------------8--------0---------------|

Parte 2 de 2

E|----------------------------------------------------|
B|----------------------------------------------------|
G|----------------------------------------------------|
D|-----10--------10-8-7-0------10-----10--------------|
A|---8----8----0-------------7------7-10--------------|
D|-8--------0--------------7----------10--------------|
Composição de Three Days Grace
241.901 exibições
    • ½ Tom
    • Am
    • Bbm
    • Bm
    • Cm
    • C#m
    • Dm
    • Ebm
    • Em
    • Fm
    • F#m
    • Gm
    • G#m
  • Adicionar à lista

    0 comentários

    Ver todos os comentários

    Conseguiu tocar?

    61 Tocaram 7 Ainda não

    Grave um vídeo tocando Never Too Late e nos envie!

    00:00 / 00:00
    outros vídeos desta música
    repetir qualidade Automático
    Outros vídeos desta música
    00:00 / 00:00
    Automático

    Cifra Club Pro

    Aproveite o Cifra Club com benefícios exclusivos e sem anúncios
    Cifra Club Pro
    Aproveite o Cifra Club com benefícios exclusivos e sem anúncios
    OK