Cifra Club

Painkiller

Three Days Grace

Cifra: Principal (violão e guitarra)
exibições 3.083
Tom: F#m Afinação: Db Gb Cb E G Db
E|--------------------------------------------| 
B|--------------------------------------------| 
G|--------------------------------------------| 
D|--------------------------------------------| 
A|--------------------------------------------| 
D|-9-11-12h11-9-11-9-11-12-14-----------------| 

E|--------------------------------------------| 
B|--------------------------------------------| 
G|--------------------------------------------| 
D|--------------------------------------------| 
A|--------------------------------------------| 
D|-9-11-12h11-9-11-9-11-14b-------------------| 

00:07: 

E|--------------------------------------------| 
B|--------------------------------------------| 
G|--------------------------------------------| 
D|--------------------------------------------| 
A|-9-11-12h11-9-11-9-11-12-14-----------------| 
D|-9-11-12h11-9-11-9-11-12-14-----------------| 

E|--------------------------------------------| 
B|--------------------------------------------| 
G|--------------------------------------------| 
D|--------------------------------------------| 
A|-9-11-12h11-9-11-9-11-----------------------| 
D|-9-11-12h11-9-11-9-11-14b--9-11-------------| 

00:16: 

E|--------------------------------------------| 
B|--------------------------------------------| 
G|--------------------------------------------| 
D|--------------------------------------------| 
A|--------------------------------------------| 
D|-9-11-12h11-9-11-9-11-14b--9-11-------------| 

E|--------------------------------------------| 
B|--------------------------------------------| 
G|--------------------------------------------| 
D|-7-7-7-7-7-7-7-4-4-4-4-4-4-4----------------| 
A|-7-7-7-7-7-7-7-4-4-4-4-4-4-4----------------| 
D|-7-7-7-7-7-7-7-4-4-4-4-4-4-4--9-11----------| 

00:26: 

E|--------------------------------------------| 
B|--------------------------------------------| 
G|--------------------------------------------| 
D|--------------------------------------------| 
A|--------------------------------------------| 
D|-9-11-12h11-9-11-9-11-14b--9-11-------------| 

E|--------------------------------------------| 
B|--------------------------------------------| 
G|--------------------------------------------| 
D|-7-7-7-7-7-7-7-4-4-4-4-4-4-4----------------| 
A|-7-7-7-7-7-7-7-4-4-4-4-4-4-4----------------| 
D|-7-7-7-7-7-7-7-4-4-4-4-4-4-4----------------| 

00:35: 

E|--------------------------------------------| 
B|--------------------------------------------| 
G|--------------------------------------------| 
D|-7-7-7-7-7-7-7-7-9--------------------------| Let ring in the 9 fret 
A|-7-7-7-7-7-7-7-7-9--------------------------| 
D|-7-7-7-7-7-7-7-7-9--------------------------| 

00:40: 

E|--------------------------------------------| 
B|--------------------------------------------| 
G|--------------------------------------------| 
D|-11-11--4-4--2-2--0-0-----------------------| 
A|-11-11--4-4--2-2--0-0-----------------------| 
D|-11-11--4-4--2-2--0-0-----------------------| 

E|--------------------------------------------| 
B|--------------------------------------------| 
G|--------------------------------------------| 
D|-11-11--4-4--2-2--0-------------------------| 
A|-11-11--4-4--2-2--0-------------------------| 
D|-11-11--4-4--2-2--0-------------------------| 

00:51: 

E|--------------------------------------------| 
B|--------------------------------------------| 
G|--------------------------------------------| 
D|-11-11-11-4-4-4-2-2-2-9-9-9-----------------| 
A|-11-11-11-4-4-4-2-2-2-9-9-9-----------------| 
D|-11-11-11-4-4-4-2-2-2-9-9-9-----------------| 

00:56: 

E|--------------------------------------------| 
B|--------------------------------------------| 
G|--------------------------------------------| 
D|-11-11--4-4--2-2--0-------------------------| Let ring in the 0 fret 
A|-11-11--4-4--2-2--0-------------------------| 
D|-11-11--4-4--2-2--0-------------------------| 

01:02: 

E|--------------------------------------------| 
B|--------------------------------------------| 
G|--------------------------------------------| 
D|--------------------------------------------| 
A|-9-11-12h11-9-11-9-11-12-14-----------------| 
D|-9-11-12h11-9-11-9-11-12-14-----------------| 

E|--------------------------------------------| 
B|--------------------------------------------| 
G|--------------------------------------------| 
D|--------------------------------------------| 
A|-9-11-12h11-9-11-9-11-----------------------| 
D|-9-11-12h11-9-11-9-11-14b--9-11-------------| 

01:10: 

E|--------------------------------------------| 
B|--------------------------------------------| 
G|--------------------------------------------| 
D|--------------------------------------------| 
A|--------------------------------------------| 
D|-9-11-12h11-9-11-9-11-14b--9-11-------------| 

E|--------------------------------------------| 
B|--------------------------------------------| 
G|--------------------------------------------| 
D|-7-7-7-7-7-7-7-4-4-4-4-4-4-4----------------| 
A|-7-7-7-7-7-7-7-4-4-4-4-4-4-4----------------| 
D|-7-7-7-7-7-7-7-4-4-4-4-4-4-4--9-11----------| 

01:21: 

E|--------------------------------------------| 
B|--------------------------------------------| 
G|--------------------------------------------| 
D|--------------------------------------------| 
A|--------------------------------------------| 
D|-9-11-12h11-9-11-9-11-14b--9-11-------------| 

E|--------------------------------------------| 
B|--------------------------------------------| 
G|--------------------------------------------| 
D|-7-7-7-7-7-7-7-4-4-4-4-4-4-4----------------| 
A|-7-7-7-7-7-7-7-4-4-4-4-4-4-4----------------| 
D|-7-7-7-7-7-7-7-4-4-4-4-4-4-4----------------| 

1:28: 

E|--------------------------------------------| 
B|--------------------------------------------| 
G|--------------------------------------------| 
D|-7-7-7-7-7-7-7-7-9--------------------------| Remember let ring the 9 fret 
A|-7-7-7-7-7-7-7-7-9--------------------------| 
D|-7-7-7-7-7-7-7-7-9--------------------------| 

1:34: 

E|--------------------------------------------| 
B|--------------------------------------------| 
G|--------------------------------------------| 
D|-11-11--4-4--2-2--0-0-----------------------| 
A|-11-11--4-4--2-2--0-0-----------------------| 
D|-11-11--4-4--2-2--0-0-----------------------| 

E|--------------------------------------------| 
B|--------------------------------------------| 
G|--------------------------------------------| 
D|-11-11--4-4--2-2--0-------------------------| 
A|-11-11--4-4--2-2--0-------------------------| 
D|-11-11--4-4--2-2--0-------------------------| 

01:45: 

E|--------------------------------------------| 
B|--------------------------------------------| 
G|--------------------------------------------| 
D|-11-11-11-4-4-4-2-2-2-9-9-9-----------------| 
A|-11-11-11-4-4-4-2-2-2-9-9-9-----------------| 
D|-11-11-11-4-4-4-2-2-2-9-9-9-----------------| 

01:50: 

E|--------------------------------------------| 
B|--------------------------------------------| 
G|--------------------------------------------| 
D|-11-11--4-4--2-2--0-------------------------|  
A|-11-11--4-4--2-2--0-------------------------| 
D|-11-11--4-4--2-2--0-------------------------| 

01:56: 

E|--------------------------------------------| 
B|--------------------------------------------| 
G|--------------------------------------------| 
D|-2-2-2-2-2-2-2-0-0-0-0-0-0-0----------------| 
A|-2-2-2-2-2-2-2-0-0-0-0-0-0-0----------------| 
D|-2-2-2-2-2-2-2-0-0-0-0-0-0-0----------------| x3 

02:12: 

E|--------------------------------------------| 
B|--------------------------------------------| 
G|--------------------------------------------| 
D|-2-2-2-2-2-2-2-0----------------------------| Let ring the 0 
A|-2-2-2-2-2-2-2-0----------------------------| 
D|-2-2-2-2-2-2-2-0----------------------------| 

02:17: 

E|--------------------------------------------| 
B|--------------------------------------------| 
G|--------------------------------------------| 
D|--------------------------------------------| 
A|--------------------------------------------| 
D|-9-11-12h11-9-11-9-11-12-14-----------------| 

E|--------------------------------------------| 
B|--------------------------------------------| 
G|--------------------------------------------| 
D|--------------------------------------------| 
A|--------------------------------------------| 
D|-9-11-12h11-9-11-9-11-----------------------| 

02:23: 

E|--------------------------------------------| 
B|--------------------------------------------| 
G|--------------------------------------------| 
D|-11-11--4-4--2-2--0-0-----------------------| 
A|-11-11--4-4--2-2--0-0-----------------------| 
D|-11-11--4-4--2-2--0-0-----------------------| 

E|--------------------------------------------| 
B|--------------------------------------------| 
G|--------------------------------------------| 
D|-11-11--4-4--2-2--0-0-----------------------| 
A|-11-11--4-4--2-2--0-0-----------------------| 
D|-11-11--4-4--2-2--0-0-----------------------| 

02:33 

E|--------------------------------------------| 
B|--------------------------------------------| 
G|--------------------------------------------| 
D|-11-11-11-4-4-4-2-2-2-9-9-9-----------------| 
A|-11-11-11-4-4-4-2-2-2-9-9-9-----------------| 
D|-11-11-11-4-4-4-2-2-2-9-9-9-----------------| 

02:40: 

E|--------------------------------------------| 
B|--------------------------------------------| 
G|--------------------------------------------| 
D|-11-11--4-4--2-2--0-------------------------| 
A|-11-11--4-4--2-2--0-------------------------| 
D|-11-11--4-4--2-2--0-------------------------| 

02:44: 

E|--------------------------------------------| 
B|--------------------------------------------| 
G|--------------------------------------------| 
D|--------------------------------------------| 
A|-9-11-12h11-9-11-9-11-12-14-----------------| 
D|-9-11-12h11-9-11-9-11-12-14-----------------| 

E|--------------------------------------------| 
B|--------------------------------------------| 
G|--------------------------------------------| 
D|--------------------------------------------| 
A|-9-11-12h11-9-11-9-11-----------------------| 
D|-9-11-12h11-9-11-9-11-14b-------------------| 

E|--------------------------------------------| 
B|--------------------------------------------| 
G|--------------------------------------------| 
D|--------------------------------------------| 
A|-9-11-12h11-9-11-9-11-12-14-----------------| 
D|-9-11-12h11-9-11-9-11-12-14-----------------| 

E|--------------------------------------------| 
B|--------------------------------------------| 
G|--------------------------------------------| 
D|--------------------------------------------| 
A|-9-11-12h11-9-11-9-11-----------------------| 
D|-9-11-12h11-9-11-9-11-----------------------|
Acordes para:
    Composição: Matt Walst / Neil Sanderson Colaboração e revisão:
    • Paulo Henrique

    0 comentários

    mostrar mais comentários

    Conseguiu tocar?

    4 tocaram 0 ainda não

    Grave um vídeo tocando Painkiller e mande pra gente!

    00:00 / 00:00
    outros vídeos desta música
    repetir qualidade Automático
    Outros vídeos desta música
    00:00 / 00:00
    Automático
    OK